  0
SECTION
  2
HEADER
  9
$ACADVER
  1
AC1009
  9
$DWGCODEPAGE
  3
ansi_1252
  9
$INSBASE
 10
0.0
 20
0.0
 30
0.0
  9
$EXTMIN
 10
-3332.89661683169
 20
-1843.055930512473
 30
-38.73891577336
  9
$EXTMAX
 10
-1261.696506975374
 20
-301.04569644009
 30
38.73891577336
  9
$LIMMIN
 10
0.0
 20
0.0
  9
$LIMMAX
 10
297.0
 20
210.0
  9
$ORTHOMODE
 70
           0
  9
$REGENMODE
 70
           1
  9
$FILLMODE
 70
           1
  9
$QTEXTMODE
 70
           0
  9
$MIRRTEXT
 70
           1
  9
$DRAGMODE
 70
           1
  9
$LTSCALE
 40
1.0
  9
$OSMODE
 70
           0
  9
$ATTMODE
 70
           1
  9
$TEXTSIZE
 40
25.4
  9
$TRACEWID
 40
1.0
  9
$TEXTSTYLE
  7
STANDARD
  9
$CLAYER
  8
0
  9
$CELTYPE
  6
CONTINUOUS
  9
$CECOLOR
 62
           7
  9
$DIMSCALE
 40
1.0
  9
$DIMASZ
 40
4.0
  9
$DIMEXO
 40
1.5
  9
$DIMDLI
 40
10.0
  9
$DIMRND
 40
0.01
  9
$DIMDLE
 40
0.0
  9
$DIMEXE
 40
3.0
  9
$DIMTP
 40
0.0
  9
$DIMTM
 40
0.0
  9
$DIMTXT
 40
2.538
  9
$DIMCEN
 40
0.09
  9
$DIMTSZ
 40
0.0
  9
$DIMTOL
 70
           0
  9
$DIMLIM
 70
           0
  9
$DIMTIH
 70
           1
  9
$DIMTOH
 70
           1
  9
$DIMSE1
 70
           0
  9
$DIMSE2
 70
           0
  9
$DIMTAD
 70
           0
  9
$DIMZIN
 70
           0
  9
$DIMBLK
  1
TC_DIMARROW_FILLED30
  9
$DIMASO
 70
           0
  9
$DIMSHO
 70
           1
  9
$DIMPOST
  1
<>mm
  9
$DIMAPOST
  1

  9
$DIMALT
 70
           0
  9
$DIMALTD
 70
           2
  9
$DIMALTF
 40
1.0
  9
$DIMLFAC
 40
1.0
  9
$DIMTOFL
 70
           1
  9
$DIMTVP
 40
0.0
  9
$DIMTIX
 70
           0
  9
$DIMSOXD
 70
           0
  9
$DIMSAH
 70
           0
  9
$DIMBLK1
  1

  9
$DIMBLK2
  1

  9
$DIMSTYLE
  2
STANDARD
  9
$DIMCLRD
 70
           7
  9
$DIMCLRE
 70
           7
  9
$DIMCLRT
 70
           7
  9
$DIMTFAC
 40
1.0
  9
$DIMGAP
 40
1.5
  9
$LUNITS
 70
           2
  9
$LUPREC
 70
           2
  9
$AXISMODE
 70
           0
  9
$AXISUNIT
 10
0.0
 20
0.0
  9
$SKETCHINC
 40
1.0
  9
$FILLETRAD
 40
3.0
  9
$AUNITS
 70
           0
  9
$AUPREC
 70
           2
  9
$MENU
  1
acad
  9
$ELEVATION
 40
0.0
  9
$PELEVATION
 40
0.0
  9
$THICKNESS
 40
0.0
  9
$LIMCHECK
 70
           0
  9
$BLIPMODE
 70
           1
  9
$CHAMFERA
 40
0.0
  9
$CHAMFERB
 40
0.0
  9
$SKPOLY
 70
           0
  9
$TDCREATE
 40
0.000000000
  9
$TDUPDATE
 40
2449702.667959363
  9
$TDINDWG
 40
0.0000000000
  9
$TDUSRTIMER
 40
0.0000000000
  9
$USRTIMER
 70
           1
  9
$ANGBASE
 50
0.0
  9
$ANGDIR
 70
           0
  9
$PDMODE
 70
           0
  9
$PDSIZE
 40
0.0
  9
$PLINEWID
 40
0.0
  9
$COORDS
 70
           0
  9
$SPLFRAME
 70
           0
  9
$SPLINETYPE
 70
           6
  9
$SPLINESEGS
 70
          20
  9
$ATTDIA
 70
           0
  9
$ATTREQ
 70
           1
  9
$HANDLING
 70
           1
  9
$HANDSEED
  5
6CA
  9
$SURFTAB1
 70
           6
  9
$SURFTAB2
 70
           6
  9
$SURFTYPE
 70
           6
  9
$SURFU
 70
           6
  9
$SURFV
 70
           6
  9
$UCSNAME
  2

  9
$UCSORG
 10
0.0
 20
0.0
 30
0.0
  9
$UCSXDIR
 10
1.0
 20
0.0
 30
0.0
  9
$UCSYDIR
 10
0.0
 20
1.0
 30
0.0
  9
$PUCSNAME
  2

  9
$PUCSORG
 10
0.0
 20
0.0
 30
0.0
  9
$PUCSXDIR
 10
1.0
 20
0.0
 30
0.0
  9
$PUCSYDIR
 10
0.0
 20
1.0
 30
0.0
  9
$USERI1
 70
           0
  9
$USERI2
 70
           0
  9
$USERI3
 70
           0
  9
$USERI4
 70
           0
  9
$USERI5
 70
           0
  9
$USERR1
 40
0.0
  9
$USERR2
 40
0.0
  9
$USERR3
 40
0.0
  9
$USERR4
 40
0.0
  9
$USERR5
 40
0.0
  9
$WORLDVIEW
 70
           1
  9
$SHADEDGE
 70
           3
  9
$SHADEDIF
 70
          70
  9
$TILEMODE
 70
           1
  9
$MAXACTVP
 70
          16
  9
$PINSBASE
 10
0.0
 20
0.0
 30
0.0
  9
$PLIMCHECK
 70
           0
  9
$PEXTMIN
 10
0.0
 20
0.0
 30
0.0
  9
$PEXTMAX
 10
297.0
 20
210.0
 30
0.0
  9
$PLIMMIN
 10
0.0
 20
0.0
  9
$PLIMMAX
 10
297.0
 20
210.0
  9
$UNITMODE
 70
           0
  9
$VISRETAIN
 70
           0
  9
$PLINEGEN
 70
           1
  9
$PSLTSCALE
 70
           1
  9
$TREEDEPTH
 70
        3020
  9
$DWGCODEPAGE
  3
ansi_1252
  0
ENDSEC
  0
SECTION
  2
TABLES
  0
TABLE
  2
VPORT
 70
           1
  0
VPORT
  2
*ACTIVE
 70
           0
 10
0.0
 20
0.0
 11
1.0
 21
1.0
 12
0.0
 22
0.0
 13
0.0
 23
0.0
 14
5.0
 24
5.0
 15
5.0
 25
5.0
 16
0.0
 26
0.0
 36
1.0
 17
-1738.317852360345
 27
-778.543183569555
 37
0.0
 40
2645.949378655064
 41
1.912582781457
 42
50.0
 43
0.0
 44
0.0
 50
0.0
 51
0.0
 71
           0
 72
         100
 73
           1
 74
           1
 75
           0
 76
           1
 77
           0
 78
           0
  0
ENDTAB
  0
TABLE
  2
LTYPE
 70
          13
  0
LTYPE
  2
CONTINUOUS
 70
          64
  3
Solid line
 72
          65
 73
           0
 40
0.0
  0
LTYPE
  2
BORDER
 70
           0
  3
BORDER
 72
          65
 73
           6
 40
1.75
 49
0.5
 49
-0.25
 49
0.5
 49
-0.25
 49
0.0
 49
-0.25
  0
LTYPE
  2
CENTER
 70
           0
  3
CENTER
 72
          65
 73
           4
 40
2.0
 49
1.25
 49
-0.25
 49
0.25
 49
-0.25
  0
LTYPE
  2
DASHDOT
 70
           0
  3
DASHDOT
 72
          65
 73
           4
 40
1.0
 49
0.5
 49
-0.25
 49
0.0
 49
-0.25
  0
LTYPE
  2
DASHED
 70
           0
  3
DASHED
 72
          65
 73
           2
 40
0.75
 49
0.5
 49
-0.25
  0
LTYPE
  2
DIVIDE
 70
           0
  3
DIVIDE
 72
          65
 73
           6
 40
1.25
 49
0.5
 49
-0.25
 49
0.0
 49
-0.25
 49
0.0
 49
-0.25
  0
LTYPE
  2
DOT
 70
           0
  3
DOT
 72
          65
 73
           2
 40
0.25
 49
0.0
 49
-0.25
  0
LTYPE
  2
HIDDEN
 70
           0
  3
HIDDEN
 72
          65
 73
           2
 40
0.375
 49
0.25
 49
-0.125
  0
LTYPE
  2
PHANTOM
 70
           0
  3
PHANTOM
 72
          65
 73
           6
 40
2.5
 49
1.25
 49
-0.25
 49
0.25
 49
-0.25
 49
0.25
 49
-0.25
  0
LTYPE
  2
$INVISIBLE
 70
           0
  3
$INVISIBLE
 72
          65
 73
           2
 40
200.0
 49
-100.0
 49
-100.0
  0
LTYPE
  2
$SNAPEXT
 70
           0
  3
$SNAPEXT
 72
          65
 73
           2
 40
0.04
 49
0.02
 49
-0.02
  0
LTYPE
  2
$CONSTRUCTION
 70
           0
  3
$CONSTRUCTION
 72
          65
 73
           4
 40
0.3
 49
0.2
 49
-0.05
 49
0.0
 49
-0.05
  0
LTYPE
  2
$AUXILIARY
 70
           0
  3
$AUXILIARY
 72
          65
 73
           2
 40
0.1
 49
0.05
 49
-0.05
  0
ENDTAB
  0
TABLE
  2
LAYER
 70
           3
  0
LAYER
  2
0
 70
           0
 62
          13
  6
CONTINUOUS
  0
LAYER
  2
$CONSTRUCTION
 70
           0
 62
           9
  6
$CONSTRUCTION
  0
LAYER
  2
IMAGE
 70
           0
 62
           7
  6
CONTINUOUS
  0
ENDTAB
  0
TABLE
  2
STYLE
 70
           1
  0
STYLE
  2
STANDARD
 70
           0
 40
0.0
 41
1.0
 50
0.0
 71
           0
 42
15.239999771118
  3
TIMES.SHX
  4

  0
ENDTAB
  0
TABLE
  2
VIEW
 70
           0
  0
VIEW
  2
VIEW_0
 70
           0
 40
8.267716535433
 10
5.846456692913
 20
4.133858267717
 41
11.692913385827
 11
0.0
 21
0.0
 31
1.0
 12
0.0
 22
0.0
 32
0.0
 42
92.090489446729
 43
0.0
 44
0.0
 50
0.0
 71
           0
  0
ENDTAB
  0
TABLE
  2
UCS
 70
           0
  0
ENDTAB
  0
TABLE
  2
APPID
 70
           2
  0
APPID
  2
ACAD
 70
           0
  0
APPID
  2
TCAD
 70
           0
  0
ENDTAB
  0
TABLE
  2
DIMSTYLE
 70
           1
  0
DIMSTYLE
  2
STANDARD
 70
           0
  3
<>mm
  4

  5
TC_DIMARROW_FILLED30
  6

  7

 40
1.0
 41
4.0
 42
1.5
 43
10.0
 44
3.0
 45
0.01
 46
0.0
 47
0.0
 48
0.0
 71
           0
 72
           0
 73
           1
 74
           1
 75
           0
 76
           0
 77
           0
 78
           0
140
2.538
141
0.09
142
0.0
143
1.0
144
1.0
145
0.0
146
1.0
147
1.5
170
           0
171
           2
172
           1
173
           0
174
           0
175
           0
176
           7
177
           7
178
           7
  0
ENDTAB
  0
ENDSEC
  0
SECTION
  2
BLOCKS
  0
BLOCK
  8
0
  5
2E
  2
TC_DIMARROW_FILLED30
 70
           0
 10
0.0
 20
0.0
 30
0.0
  3
TC_DIMARROW_FILLED30
  0
SOLID
  8
0
  6
BYBLOCK
 62
           0
  5
2F
 10
0.0
 20
0.0
 30
0.0
 11
-1.0
 21
0.267949
 31
0.0
 12
-1.0
 22
-0.267949
 32
0.0
 13
-1.0
 23
-0.267949
 33
0.0
  0
ENDBLK
  8
0
  5
30
  0
BLOCK
  8
0
  5
6C
  2
*E1
 70
           1
 10
0.0
 20
0.0
 30
0.0
  3
*E1
  0
POLYLINE
  8
0
  6
CONTINUOUS
 62
          93
  5
6D
 66
           1
 10
0.0
 20
0.0
 30
0.0
 70
         128
  0
VERTEX
  8
0
  6
CONTINUOUS
 62
          93
  5
6E
 10
-1662.748240191726
 20
-991.395773071085
 30
0.0
  0
VERTEX
  8
0
  6
CONTINUOUS
 62
          93
  5
6F
 10
-1686.929259422623
 20
-987.700479873849
 30
0.0
  0
VERTEX
  8
0
  6
CONTINUOUS
 62
          93
  5
70
 10
-1711.609757727008
 20
-984.515515480433
 30
0.0
  0
VERTEX
  8
0
  6
CONTINUOUS
 62
          93
  5
71
 10
-1736.755116635938
 20
-981.805086966493
 30
0.0
  0
VERTEX
  8
0
  6
CONTINUOUS
 62
          93
  5
72
 10
-1762.330717680471
 20
-979.533401407689
 30
0.0
  0
VERTEX
  8
0
  6
CONTINUOUS
 62
          93
  5
73
 10
-1788.301942391666
 20
-977.664665879678
 30
0.0
  0
VERTEX
  8
0
  6
CONTINUOUS
 62
          93
  5
74
 10
-1814.634172300581
 20
-976.163087458118
 30
0.0
  0
VERTEX
  8
0
  6
CONTINUOUS
 62
          93
  5
75
 10
-1841.292788938275
 20
-974.992873218667
 30
0.0
  0
VERTEX
  8
0
  6
CONTINUOUS
 62
          93
  5
76
 10
-1868.243173835806
 20
-974.118230236985
 30
0.0
  0
VERTEX
  8
0
  6
CONTINUOUS
 62
          93
  5
77
 10
-1895.450708524232
 20
-973.503365588728
 30
0.0
  0
VERTEX
  8
0
  6
CONTINUOUS
 62
          93
  5
78
 10
-1922.880774534611
 20
-973.112486349554
 30
0.0
  0
VERTEX
  8
0
  6
CONTINUOUS
 62
          93
  5
79
 10
-1950.498753398002
 20
-972.909799595123
 30
0.0
  0
VERTEX
  8
0
  6
CONTINUOUS
 62
          93
  5
7A
 10
-1978.270026645464
 20
-972.859512401091
 30
0.0
  0
VERTEX
  8
0
  6
CONTINUOUS
 62
          93
  5
7B
 10
-2006.159975808053
 20
-972.925831843117
 30
0.0
  0
VERTEX
  8
0
  6
CONTINUOUS
 62
          93
  5
7C
 10
-2034.133982416829
 20
-973.07296499686
 30
0.0
  0
VERTEX
  8
0
  6
CONTINUOUS
 62
          93
  5
7D
 10
-2062.15742800285
 20
-973.265118937977
 30
0.0
  0
VERTEX
  8
0
  6
CONTINUOUS
 62
          93
  5
7E
 10
-2090.195694097175
 20
-973.466500742126
 30
0.0
  0
VERTEX
  8
0
  6
CONTINUOUS
 62
          93
  5
7F
 10
-2118.214162230862
 20
-973.641317484966
 30
0.0
  0
VERTEX
  8
0
  6
CONTINUOUS
 62
          93
  5
80
 10
-2146.178213934968
 20
-973.753776242154
 30
0.0
  0
VERTEX
  8
0
  6
CONTINUOUS
 62
          93
  5
81
 10
-2174.053230740553
 20
-973.768084089349
 30
0.0
  0
VERTEX
  8
0
  6
CONTINUOUS
 62
          93
  5
82
 10
-2201.804594178674
 20
-973.648448102208
 30
0.0
  0
SEQEND
  8
0
  6
CONTINUOUS
 62
          93
  5
83
  0
ENDBLK
  8
0
  5
84
  0
BLOCK
  8
0
  5
C2
  2
*E2
 70
           1
 10
0.0
 20
0.0
 30
0.0
  3
*E2
  0
POLYLINE
  8
0
  6
CONTINUOUS
 62
          93
  5
C3
 66
           1
 10
0.0
 20
0.0
 30
0.0
 70
         128
  0
VERTEX
  8
0
  6
CONTINUOUS
 62
          93
  5
C4
 10
-1392.362523927587
 20
-722.471708067604
 30
0.0
  0
VERTEX
  8
0
  6
CONTINUOUS
 62
          93
  5
C5
 10
-1416.144734875128
 20
-718.371435615703
 30
0.0
  0
VERTEX
  8
0
  6
CONTINUOUS
 62
          93
  5
C6
 10
-1439.794449898195
 20
-714.717348803135
 30
0.0
  0
VERTEX
  8
0
  6
CONTINUOUS
 62
          93
  5
C7
 10
-1463.298190431621
 20
-711.485258121714
 30
0.0
  0
VERTEX
  8
0
  6
CONTINUOUS
 62
          93
  5
C8
 10
-1486.642477910237
 20
-708.650974063253
 30
0.0
  0
VERTEX
  8
0
  6
CONTINUOUS
 62
          93
  5
C9
 10
-1509.813833768878
 20
-706.190307119568
 30
0.0
  0
VERTEX
  8
0
  6
CONTINUOUS
 62
          93
  5
CA
 10
-1532.798779442375
 20
-704.079067782472
 30
0.0
  0
VERTEX
  8
0
  6
CONTINUOUS
 62
          93
  5
CB
 10
-1555.583836365563
 20
-702.293066543779
 30
0.0
  0
VERTEX
  8
0
  6
CONTINUOUS
 62
          93
  5
CC
 10
-1578.155525973273
 20
-700.808113895303
 30
0.0
  0
VERTEX
  8
0
  6
CONTINUOUS
 62
          93
  5
CD
 10
-1600.500369700338
 20
-699.600020328859
 30
0.0
  0
VERTEX
  8
0
  6
CONTINUOUS
 62
          93
  5
CE
 10
-1622.604888981591
 20
-698.64459633626
 30
0.0
  0
VERTEX
  8
0
  6
CONTINUOUS
 62
          93
  5
CF
 10
-1644.455605251866
 20
-697.917652409321
 30
0.0
  0
VERTEX
  8
0
  6
CONTINUOUS
 62
          93
  5
D0
 10
-1666.039039945995
 20
-697.394999039856
 30
0.0
  0
VERTEX
  8
0
  6
CONTINUOUS
 62
          93
  5
D1
 10
-1687.34171449881
 20
-697.052446719679
 30
0.0
  0
VERTEX
  8
0
  6
CONTINUOUS
 62
          93
  5
D2
 10
-1708.350150345146
 20
-696.865805940604
 30
0.0
  0
VERTEX
  8
0
  6
CONTINUOUS
 62
          93
  5
D3
 10
-1729.050868919833
 20
-696.810887194444
 30
0.0
  0
VERTEX
  8
0
  6
CONTINUOUS
 62
          93
  5
D4
 10
-1749.430391657707
 20
-696.863500973016
 30
0.0
  0
VERTEX
  8
0
  6
CONTINUOUS
 62
          93
  5
D5
 10
-1769.475239993599
 20
-696.999457768131
 30
0.0
  0
VERTEX
  8
0
  6
CONTINUOUS
 62
          93
  5
D6
 10
-1789.171935362341
 20
-697.194568071605
 30
0.0
  0
VERTEX
  8
0
  6
CONTINUOUS
 62
          93
  5
D7
 10
-1808.506999198768
 20
-697.424642375252
 30
0.0
  0
VERTEX
  8
0
  6
CONTINUOUS
 62
          93
  5
D8
 10
-1827.466952937712
 20
-697.665491170885
 30
0.0
  0
SEQEND
  8
0
  6
CONTINUOUS
 62
          93
  5
D9
  0
ENDBLK
  8
0
  5
DA
  0
BLOCK
  8
0
  5
DD
  2
*E3
 70
           1
 10
0.0
 20
0.0
 30
0.0
  3
*E3
  0
POLYLINE
  8
0
  6
CONTINUOUS
 62
          93
  5
DE
 66
           1
 10
0.0
 20
0.0
 30
0.0
 70
         128
  0
VERTEX
  8
0
  6
CONTINUOUS
 62
          93
  5
DF
 10
-1392.362523927587
 20
-728.471708067604
 30
0.0
  0
VERTEX
  8
0
  6
CONTINUOUS
 62
          93
  5
E0
 10
-1416.144734875128
 20
-724.371439118337
 30
0.0
  0
VERTEX
  8
0
  6
CONTINUOUS
 62
          93
  5
E1
 10
-1439.794449898195
 20
-720.717362330548
 30
0.0
  0
VERTEX
  8
0
  6
CONTINUOUS
 62
          93
  5
E2
 10
-1463.298190431621
 20
-717.485287471369
 30
0.0
  0
VERTEX
  8
0
  6
CONTINUOUS
 62
          93
  5
E3
 10
-1486.642477910237
 20
-714.651024307931
 30
0.0
  0
VERTEX
  8
0
  6
CONTINUOUS
 62
          93
  5
E4
 10
-1509.813833768878
 20
-712.190382607365
 30
0.0
  0
VERTEX
  8
0
  6
CONTINUOUS
 62
          93
  5
E5
 10
-1532.798779442375
 20
-710.079172136802
 30
0.0
  0
VERTEX
  8
0
  6
CONTINUOUS
 62
          93
  5
E6
 10
-1555.583836365563
 20
-708.293202663374
 30
0.0
  0
VERTEX
  8
0
  6
CONTINUOUS
 62
          93
  5
E7
 10
-1578.155525973273
 20
-706.808283954213
 30
0.0
  0
VERTEX
  8
0
  6
CONTINUOUS
 62
          93
  5
E8
 10
-1600.500369700338
 20
-705.600225776448
 30
0.0
  0
VERTEX
  8
0
  6
CONTINUOUS
 62
          93
  5
E9
 10
-1622.604888981591
 20
-704.644837897211
 30
0.0
  0
VERTEX
  8
0
  6
CONTINUOUS
 62
          93
  5
EA
 10
-1644.455605251866
 20
-703.917930083635
 30
0.0
  0
VERTEX
  8
0
  6
CONTINUOUS
 62
          93
  5
EB
 10
-1666.039039945995
 20
-703.395312102849
 30
0.0
  0
VERTEX
  8
0
  6
CONTINUOUS
 62
          93
  5
EC
 10
-1687.34171449881
 20
-703.052793721985
 30
0.0
  0
VERTEX
  8
0
  6
CONTINUOUS
 62
          93
  5
ED
 10
-1708.350150345146
 20
-702.866184708175
 30
0.0
  0
VERTEX
  8
0
  6
CONTINUOUS
 62
          93
  5
EE
 10
-1729.050868919833
 20
-702.81129482855
 30
0.0
  0
VERTEX
  8
0
  6
CONTINUOUS
 62
          93
  5
EF
 10
-1749.430391657707
 20
-702.86393385024
 30
0.0
  0
VERTEX
  8
0
  6
CONTINUOUS
 62
          93
  5
F0
 10
-1769.475239993599
 20
-702.999911540378
 30
0.0
  0
VERTEX
  8
0
  6
CONTINUOUS
 62
          93
  5
F1
 10
-1789.171935362341
 20
-703.195037666095
 30
0.0
  0
VERTEX
  8
0
  6
CONTINUOUS
 62
          93
  5
F2
 10
-1808.506999198768
 20
-703.425121994521
 30
0.0
  0
VERTEX
  8
0
  6
CONTINUOUS
 62
          93
  5
F3
 10
-1827.466952937712
 20
-703.665974292788
 30
0.0
  0
SEQEND
  8
0
  6
CONTINUOUS
 62
          93
  5
F4
  0
ENDBLK
  8
0
  5
F5
  0
BLOCK
  8
0
  5
165
  2
*E4
 70
           1
 10
0.0
 20
0.0
 30
0.0
  3
*E4
  0
POLYLINE
  8
0
  6
CONTINUOUS
 62
          30
  5
166
 66
           1
 10
0.0
 20
0.0
 30
0.0
 70
         128
  0
VERTEX
  8
0
  6
CONTINUOUS
 62
          30
  5
167
 10
-1559.112341430879
 20
-658.505060476415
 30
0.0
  0
VERTEX
  8
0
  6
CONTINUOUS
 62
          30
  5
168
 10
-1565.171196511451
 20
-655.985326527217
 30
0.0
  0
VERTEX
  8
0
  6
CONTINUOUS
 62
          30
  5
169
 10
-1571.905778328653
 20
-653.922112865885
 30
0.0
  0
VERTEX
  8
0
  6
CONTINUOUS
 62
          30
  5
16A
 10
-1579.244183636065
 20
-652.285986606937
 30
0.0
  0
VERTEX
  8
0
  6
CONTINUOUS
 62
          30
  5
16B
 10
-1587.114509187265
 20
-651.04751486489
 30
0.0
  0
VERTEX
  8
0
  6
CONTINUOUS
 62
          30
  5
16C
 10
-1595.444851735831
 20
-650.17726475426
 30
0.0
  0
VERTEX
  8
0
  6
CONTINUOUS
 62
          30
  5
16D
 10
-1604.163308035342
 20
-649.645803389564
 30
0.0
  0
VERTEX
  8
0
  6
CONTINUOUS
 62
          30
  5
16E
 10
-1613.197974839377
 20
-649.42369788532
 30
0.0
  0
VERTEX
  8
0
  6
CONTINUOUS
 62
          30
  5
16F
 10
-1622.476948901514
 20
-649.481515356044
 30
0.0
  0
VERTEX
  8
0
  6
CONTINUOUS
 62
          30
  5
170
 10
-1631.928326975331
 20
-649.789822916253
 30
0.0
  0
VERTEX
  8
0
  6
CONTINUOUS
 62
          30
  5
171
 10
-1641.480205814407
 20
-650.319187680464
 30
0.0
  0
VERTEX
  8
0
  6
CONTINUOUS
 62
          30
  5
172
 10
-1651.060682172322
 20
-651.040176763194
 30
0.0
  0
VERTEX
  8
0
  6
CONTINUOUS
 62
          30
  5
173
 10
-1660.597852802653
 20
-651.923357278959
 30
0.0
  0
VERTEX
  8
0
  6
CONTINUOUS
 62
          30
  5
174
 10
-1670.019814458979
 20
-652.939296342277
 30
0.0
  0
VERTEX
  8
0
  6
CONTINUOUS
 62
          30
  5
175
 10
-1679.254663894878
 20
-654.058561067665
 30
0.0
  0
VERTEX
  8
0
  6
CONTINUOUS
 62
          30
  5
176
 10
-1688.23049786393
 20
-655.251718569639
 30
0.0
  0
VERTEX
  8
0
  6
CONTINUOUS
 62
          30
  5
177
 10
-1696.875413119712
 20
-656.489335962716
 30
0.0
  0
VERTEX
  8
0
  6
CONTINUOUS
 62
          30
  5
178
 10
-1705.117506415803
 20
-657.741980361414
 30
0.0
  0
VERTEX
  8
0
  6
CONTINUOUS
 62
          30
  5
179
 10
-1712.884874505782
 20
-658.980218880248
 30
0.0
  0
VERTEX
  8
0
  6
CONTINUOUS
 62
          30
  5
17A
 10
-1720.105614143227
 20
-660.174618633737
 30
0.0
  0
VERTEX
  8
0
  6
CONTINUOUS
 62
          30
  5
17B
 10
-1726.707822081717
 20
-661.295746736396
 30
0.0
  0
SEQEND
  8
0
  6
CONTINUOUS
 62
          30
  5
17C
  0
ENDBLK
  8
0
  5
17D
  0
BLOCK
  8
0
  5
1CF
  2
*E5
 70
           1
 10
0.0
 20
0.0
 30
0.0
  3
*E5
  0
POLYLINE
  8
0
  6
CONTINUOUS
 62
          30
  5
1D0
 66
           1
 10
0.0
 20
0.0
 30
0.0
 70
         128
  0
VERTEX
  8
0
  6
CONTINUOUS
 62
          30
  5
1D1
 10
-1529.809365118965
 20
-746.321950220462
 30
0.0
  0
VERTEX
  8
0
  6
CONTINUOUS
 62
          30
  5
1D2
 10
-1522.818000890247
 20
-746.314888415064
 30
0.0
  0
VERTEX
  8
0
  6
CONTINUOUS
 62
          30
  5
1D3
 10
-1515.776904753112
 20
-746.264065608733
 30
0.0
  0
VERTEX
  8
0
  6
CONTINUOUS
 62
          30
  5
1D4
 10
-1508.696453467195
 20
-746.158609506848
 30
0.0
  0
VERTEX
  8
0
  6
CONTINUOUS
 62
          30
  5
1D5
 10
-1501.587023792129
 20
-745.987647814789
 30
0.0
  0
VERTEX
  8
0
  6
CONTINUOUS
 62
          30
  5
1D6
 10
-1494.458992487547
 20
-745.740308237934
 30
0.0
  0
VERTEX
  8
0
  6
CONTINUOUS
 62
          30
  5
1D7
 10
-1487.322736313082
 20
-745.405718481663
 30
0.0
  0
VERTEX
  8
0
  6
CONTINUOUS
 62
          30
  5
1D8
 10
-1480.188632028368
 20
-744.973006251356
 30
0.0
  0
VERTEX
  8
0
  6
CONTINUOUS
 62
          30
  5
1D9
 10
-1473.067056393039
 20
-744.431299252392
 30
0.0
  0
VERTEX
  8
0
  6
CONTINUOUS
 62
          30
  5
1DA
 10
-1465.968386166726
 20
-743.769725190149
 30
0.0
  0
VERTEX
  8
0
  6
CONTINUOUS
 62
          30
  5
1DB
 10
-1458.902998109064
 20
-742.977411770007
 30
0.0
  0
VERTEX
  8
0
  6
CONTINUOUS
 62
          30
  5
1DC
 10
-1451.881268979687
 20
-742.043486697346
 30
0.0
  0
VERTEX
  8
0
  6
CONTINUOUS
 62
          30
  5
1DD
 10
-1444.913575538227
 20
-740.957077677545
 30
0.0
  0
VERTEX
  8
0
  6
CONTINUOUS
 62
          30
  5
1DE
 10
-1438.010294544318
 20
-739.707312415983
 30
0.0
  0
VERTEX
  8
0
  6
CONTINUOUS
 62
          30
  5
1DF
 10
-1431.181802757594
 20
-738.28331861804
 30
0.0
  0
VERTEX
  8
0
  6
CONTINUOUS
 62
          30
  5
1E0
 10
-1424.438476937687
 20
-736.674223989094
 30
0.0
  0
VERTEX
  8
0
  6
CONTINUOUS
 62
          30
  5
1E1
 10
-1417.790693844232
 20
-734.869156234525
 30
0.0
  0
VERTEX
  8
0
  6
CONTINUOUS
 62
          30
  5
1E2
 10
-1411.24883023686
 20
-732.857243059712
 30
0.0
  0
VERTEX
  8
0
  6
CONTINUOUS
 62
          30
  5
1E3
 10
-1404.823262875207
 20
-730.627612170035
 30
0.0
  0
VERTEX
  8
0
  6
CONTINUOUS
 62
          30
  5
1E4
 10
-1398.524368518904
 20
-728.169391270872
 30
0.0
  0
VERTEX
  8
0
  6
CONTINUOUS
 62
          30
  5
1E5
 10
-1392.362523927586
 20
-725.471708067604
 30
0.0
  0
SEQEND
  8
0
  6
CONTINUOUS
 62
          30
  5
1E6
  0
ENDBLK
  8
0
  5
1E7
  0
BLOCK
  8
0
  5
234
  2
*E6
 70
           1
 10
0.0
 20
0.0
 30
0.0
  3
*E6
  0
POLYLINE
  8
0
  6
CONTINUOUS
 62
          93
  5
235
 66
           1
 10
0.0
 20
0.0
 30
0.0
 70
         128
  0
VERTEX
  8
0
  6
CONTINUOUS
 62
          93
  5
236
 10
-1662.748240191726
 20
-1143.068289887957
 30
0.0
  0
VERTEX
  8
0
  6
CONTINUOUS
 62
          93
  5
237
 10
-1686.929259422623
 20
-1146.763583085192
 30
0.0
  0
VERTEX
  8
0
  6
CONTINUOUS
 62
          93
  5
238
 10
-1711.609757727008
 20
-1149.948547478609
 30
0.0
  0
VERTEX
  8
0
  6
CONTINUOUS
 62
          93
  5
239
 10
-1736.755116635938
 20
-1152.658975992548
 30
0.0
  0
VERTEX
  8
0
  6
CONTINUOUS
 62
          93
  5
23A
 10
-1762.330717680471
 20
-1154.930661551353
 30
0.0
  0
VERTEX
  8
0
  6
CONTINUOUS
 62
          93
  5
23B
 10
-1788.301942391666
 20
-1156.799397079364
 30
0.0
  0
VERTEX
  8
0
  6
CONTINUOUS
 62
          93
  5
23C
 10
-1814.634172300581
 20
-1158.300975500923
 30
0.0
  0
VERTEX
  8
0
  6
CONTINUOUS
 62
          93
  5
23D
 10
-1841.292788938275
 20
-1159.471189740374
 30
0.0
  0
VERTEX
  8
0
  6
CONTINUOUS
 62
          93
  5
23E
 10
-1868.243173835806
 20
-1160.345832722057
 30
0.0
  0
VERTEX
  8
0
  6
CONTINUOUS
 62
          93
  5
23F
 10
-1895.450708524232
 20
-1160.960697370314
 30
0.0
  0
VERTEX
  8
0
  6
CONTINUOUS
 62
          93
  5
240
 10
-1922.880774534611
 20
-1161.351576609487
 30
0.0
  0
VERTEX
  8
0
  6
CONTINUOUS
 62
          93
  5
241
 10
-1950.498753398002
 20
-1161.554263363919
 30
0.0
  0
VERTEX
  8
0
  6
CONTINUOUS
 62
          93
  5
242
 10
-1978.270026645464
 20
-1161.60455055795
 30
0.0
  0
VERTEX
  8
0
  6
CONTINUOUS
 62
          93
  5
243
 10
-2006.159975808053
 20
-1161.538231115924
 30
0.0
  0
VERTEX
  8
0
  6
CONTINUOUS
 62
          93
  5
244
 10
-2034.133982416829
 20
-1161.391097962181
 30
0.0
  0
VERTEX
  8
0
  6
CONTINUOUS
 62
          93
  5
245
 10
-2062.15742800285
 20
-1161.198944021064
 30
0.0
  0
VERTEX
  8
0
  6
CONTINUOUS
 62
          93
  5
246
 10
-2090.195694097175
 20
-1160.997562216915
 30
0.0
  0
VERTEX
  8
0
  6
CONTINUOUS
 62
          93
  5
247
 10
-2118.214162230862
 20
-1160.822745474076
 30
0.0
  0
VERTEX
  8
0
  6
CONTINUOUS
 62
          93
  5
248
 10
-2146.178213934968
 20
-1160.710286716887
 30
0.0
  0
VERTEX
  8
0
  6
CONTINUOUS
 62
          93
  5
249
 10
-2174.053230740553
 20
-1160.695978869693
 30
0.0
  0
VERTEX
  8
0
  6
CONTINUOUS
 62
          93
  5
24A
 10
-2201.804594178674
 20
-1160.815614856833
 30
0.0
  0
SEQEND
  8
0
  6
CONTINUOUS
 62
          93
  5
24B
  0
ENDBLK
  8
0
  5
24C
  0
BLOCK
  8
0
  5
2AA
  2
*E7
 70
           1
 10
0.0
 20
0.0
 30
0.0
  3
*E7
  0
POLYLINE
  8
0
  6
CONTINUOUS
 62
           5
  5
2AB
 66
           1
 10
0.0
 20
0.0
 30
0.0
 70
         128
  0
VERTEX
  8
0
  6
CONTINUOUS
 62
           5
  5
2AC
 10
-2132.883742632461
 20
-707.541281278242
 30
0.0
  0
VERTEX
  8
0
  6
CONTINUOUS
 62
           5
  5
2AD
 10
-2135.46988112227
 20
-707.640008294306
 30
0.0
  0
VERTEX
  8
0
  6
CONTINUOUS
 62
           5
  5
2AE
 10
-2138.034749877952
 20
-707.778084319053
 30
0.0
  0
VERTEX
  8
0
  6
CONTINUOUS
 62
           5
  5
2AF
 10
-2140.5794683592
 20
-707.953438352027
 30
0.0
  0
VERTEX
  8
0
  6
CONTINUOUS
 62
           5
  5
2B0
 10
-2143.105156025705
 20
-708.163999392772
 30
0.0
  0
VERTEX
  8
0
  6
CONTINUOUS
 62
           5
  5
2B1
 10
-2145.612932337155
 20
-708.407696440829
 30
0.0
  0
VERTEX
  8
0
  6
CONTINUOUS
 62
           5
  5
2B2
 10
-2148.103916753244
 20
-708.682458495742
 30
0.0
  0
VERTEX
  8
0
  6
CONTINUOUS
 62
           5
  5
2B3
 10
-2150.57922873366
 20
-708.986214557054
 30
0.0
  0
VERTEX
  8
0
  6
CONTINUOUS
 62
           5
  5
2B4
 10
-2153.039987738097
 20
-709.316893624308
 30
0.0
  0
VERTEX
  8
0
  6
CONTINUOUS
 62
           5
  5
2B5
 10
-2155.487313226243
 20
-709.672424697047
 30
0.0
  0
VERTEX
  8
0
  6
CONTINUOUS
 62
           5
  5
2B6
 10
-2157.922324657789
 20
-710.050736774813
 30
0.0
  0
VERTEX
  8
0
  6
CONTINUOUS
 62
           5
  5
2B7
 10
-2160.346141492429
 20
-710.44975885715
 30
0.0
  0
VERTEX
  8
0
  6
CONTINUOUS
 62
           5
  5
2B8
 10
-2162.75988318985
 20
-710.8674199436
 30
0.0
  0
VERTEX
  8
0
  6
CONTINUOUS
 62
           5
  5
2B9
 10
-2165.164669209745
 20
-711.301649033707
 30
0.0
  0
VERTEX
  8
0
  6
CONTINUOUS
 62
           5
  5
2BA
 10
-2167.561619011804
 20
-711.750375127013
 30
0.0
  0
VERTEX
  8
0
  6
CONTINUOUS
 62
           5
  5
2BB
 10
-2169.951852055718
 20
-712.211527223061
 30
0.0
  0
VERTEX
  8
0
  6
CONTINUOUS
 62
           5
  5
2BC
 10
-2172.336487801178
 20
-712.683034321395
 30
0.0
  0
VERTEX
  8
0
  6
CONTINUOUS
 62
           5
  5
2BD
 10
-2174.716645707875
 20
-713.162825421557
 30
0.0
  0
VERTEX
  8
0
  6
CONTINUOUS
 62
           5
  5
2BE
 10
-2177.093445235499
 20
-713.64882952309
 30
0.0
  0
VERTEX
  8
0
  6
CONTINUOUS
 62
           5
  5
2BF
 10
-2179.468005843741
 20
-714.138975625537
 30
0.0
  0
VERTEX
  8
0
  6
CONTINUOUS
 62
           5
  5
2C0
 10
-2181.841446992293
 20
-714.631192728442
 30
0.0
  0
SEQEND
  8
0
  6
CONTINUOUS
 62
           5
  5
2C1
  0
ENDBLK
  8
0
  5
2C2
  0
BLOCK
  8
0
  5
2C6
  2
*E8
 70
           1
 10
0.0
 20
0.0
 30
0.0
  3
*E8
  0
POLYLINE
  8
0
  6
CONTINUOUS
 62
           5
  5
2C7
 66
           1
 10
0.0
 20
0.0
 30
0.0
 70
         128
  0
VERTEX
  8
0
  6
CONTINUOUS
 62
           5
  5
2C8
 10
-2132.698541274726
 20
-764.957715297738
 30
0.0
  0
VERTEX
  8
0
  6
CONTINUOUS
 62
           5
  5
2C9
 10
-2135.721601433024
 20
-764.663957029685
 30
0.0
  0
VERTEX
  8
0
  6
CONTINUOUS
 62
           5
  5
2CA
 10
-2138.637912402709
 20
-764.365390522351
 30
0.0
  0
VERTEX
  8
0
  6
CONTINUOUS
 62
           5
  5
2CB
 10
-2141.455337384122
 20
-764.061485900158
 30
0.0
  0
VERTEX
  8
0
  6
CONTINUOUS
 62
           5
  5
2CC
 10
-2144.181739577603
 20
-763.751713287528
 30
0.0
  0
VERTEX
  8
0
  6
CONTINUOUS
 62
           5
  5
2CD
 10
-2146.824982183493
 20
-763.435542808883
 30
0.0
  0
VERTEX
  8
0
  6
CONTINUOUS
 62
           5
  5
2CE
 10
-2149.392928402132
 20
-763.112444588645
 30
0.0
  0
VERTEX
  8
0
  6
CONTINUOUS
 62
           5
  5
2CF
 10
-2151.89344143386
 20
-762.781888751237
 30
0.0
  0
VERTEX
  8
0
  6
CONTINUOUS
 62
           5
  5
2D0
 10
-2154.334384479017
 20
-762.443345421079
 30
0.0
  0
VERTEX
  8
0
  6
CONTINUOUS
 62
           5
  5
2D1
 10
-2156.723620737944
 20
-762.096284722595
 30
0.0
  0
VERTEX
  8
0
  6
CONTINUOUS
 62
           5
  5
2D2
 10
-2159.069013410981
 20
-761.740176780206
 30
0.0
  0
VERTEX
  8
0
  6
CONTINUOUS
 62
           5
  5
2D3
 10
-2161.37842569847
 20
-761.374491718334
 30
0.0
  0
VERTEX
  8
0
  6
CONTINUOUS
 62
           5
  5
2D4
 10
-2163.659720800749
 20
-760.998699661402
 30
0.0
  0
VERTEX
  8
0
  6
CONTINUOUS
 62
           5
  5
2D5
 10
-2165.920761918159
 20
-760.612270733831
 30
0.0
  0
VERTEX
  8
0
  6
CONTINUOUS
 62
           5
  5
2D6
 10
-2168.16941225104
 20
-760.214675060043
 30
0.0
  0
VERTEX
  8
0
  6
CONTINUOUS
 62
           5
  5
2D7
 10
-2170.413534999734
 20
-759.805382764461
 30
0.0
  0
VERTEX
  8
0
  6
CONTINUOUS
 62
           5
  5
2D8
 10
-2172.66099336458
 20
-759.383863971507
 30
0.0
  0
VERTEX
  8
0
  6
CONTINUOUS
 62
           5
  5
2D9
 10
-2174.919650545919
 20
-758.949588805602
 30
0.0
  0
VERTEX
  8
0
  6
CONTINUOUS
 62
           5
  5
2DA
 10
-2177.19736974409
 20
-758.502027391168
 30
0.0
  0
VERTEX
  8
0
  6
CONTINUOUS
 62
           5
  5
2DB
 10
-2179.502014159435
 20
-758.040649852629
 30
0.0
  0
VERTEX
  8
0
  6
CONTINUOUS
 62
           5
  5
2DC
 10
-2181.841446992293
 20
-757.564926314405
 30
0.0
  0
SEQEND
  8
0
  6
CONTINUOUS
 62
           5
  5
2DD
  0
ENDBLK
  8
0
  5
2DE
  0
BLOCK
  8
0
  5
33D
  2
*E9
 70
           1
 10
0.0
 20
0.0
 30
0.0
  3
*E9
  0
POLYLINE
  8
0
  6
CONTINUOUS
 62
           7
  5
33E
 66
           1
 10
0.0
 20
0.0
 30
0.0
 70
         128
  0
VERTEX
  8
0
  6
CONTINUOUS
 62
           7
  5
33F
 10
-2025.588741831705
 20
-700.179742676992
 30
0.0
  0
VERTEX
  8
0
  6
CONTINUOUS
 62
           7
  5
340
 10
-2027.633606102088
 20
-699.401249908411
 30
0.0
  0
VERTEX
  8
0
  6
CONTINUOUS
 62
           7
  5
341
 10
-2029.705089266171
 20
-698.644575902731
 30
0.0
  0
VERTEX
  8
0
  6
CONTINUOUS
 62
           7
  5
342
 10
-2031.8026305771
 20
-697.911492063477
 30
0.0
  0
VERTEX
  8
0
  6
CONTINUOUS
 62
           7
  5
343
 10
-2033.925669288024
 20
-697.203769794171
 30
0.0
  0
VERTEX
  8
0
  6
CONTINUOUS
 62
           7
  5
344
 10
-2036.073644652087
 20
-696.523180498337
 30
0.0
  0
VERTEX
  8
0
  6
CONTINUOUS
 62
           7
  5
345
 10
-2038.245995922438
 20
-695.871495579499
 30
0.0
  0
VERTEX
  8
0
  6
CONTINUOUS
 62
           7
  5
346
 10
-2040.442162352224
 20
-695.250486441181
 30
0.0
  0
VERTEX
  8
0
  6
CONTINUOUS
 62
           7
  5
347
 10
-2042.661583194592
 20
-694.661924486908
 30
0.0
  0
VERTEX
  8
0
  6
CONTINUOUS
 62
           7
  5
348
 10
-2044.903697702687
 20
-694.107581120201
 30
0.0
  0
VERTEX
  8
0
  6
CONTINUOUS
 62
           7
  5
349
 10
-2047.167945129657
 20
-693.589227744585
 30
0.0
  0
VERTEX
  8
0
  6
CONTINUOUS
 62
           7
  5
34A
 10
-2049.45376472865
 20
-693.108635763584
 30
0.0
  0
VERTEX
  8
0
  6
CONTINUOUS
 62
           7
  5
34B
 10
-2051.760595752813
 20
-692.667576580722
 30
0.0
  0
VERTEX
  8
0
  6
CONTINUOUS
 62
           7
  5
34C
 10
-2054.087877455291
 20
-692.267821599522
 30
0.0
  0
VERTEX
  8
0
  6
CONTINUOUS
 62
           7
  5
34D
 10
-2056.435049089233
 20
-691.911142223508
 30
0.0
  0
VERTEX
  8
0
  6
CONTINUOUS
 62
           7
  5
34E
 10
-2058.801549907784
 20
-691.599309856205
 30
0.0
  0
VERTEX
  8
0
  6
CONTINUOUS
 62
           7
  5
34F
 10
-2061.186819164093
 20
-691.334095901134
 30
0.0
  0
VERTEX
  8
0
  6
CONTINUOUS
 62
           7
  5
350
 10
-2063.590296111306
 20
-691.117271761821
 30
0.0
  0
VERTEX
  8
0
  6
CONTINUOUS
 62
           7
  5
351
 10
-2066.01142000257
 20
-690.950608841789
 30
0.0
  0
VERTEX
  8
0
  6
CONTINUOUS
 62
           7
  5
352
 10
-2068.449630091031
 20
-690.835878544562
 30
0.0
  0
VERTEX
  8
0
  6
CONTINUOUS
 62
           7
  5
353
 10
-2070.904365629838
 20
-690.774852273663
 30
0.0
  0
SEQEND
  8
0
  6
CONTINUOUS
 62
           7
  5
354
  0
ENDBLK
  8
0
  5
355
  0
BLOCK
  8
0
  5
3B7
  2
*E10
 70
           1
 10
0.0
 20
0.0
 30
0.0
  3
*E10
  0
POLYLINE
  8
0
  6
CONTINUOUS
 62
          30
  5
3B8
 66
           1
 10
0.0
 20
0.0
 30
0.0
 70
         128
  0
VERTEX
  8
0
  6
CONTINUOUS
 62
          30
  5
3B9
 10
-2833.093302962817
 20
-1573.152998195237
 30
0.0
  0
VERTEX
  8
0
  6
CONTINUOUS
 62
          30
  5
3BA
 10
-2839.152158043388
 20
-1570.633264246038
 30
0.0
  0
VERTEX
  8
0
  6
CONTINUOUS
 62
          30
  5
3BB
 10
-2845.886739860591
 20
-1568.570050584707
 30
0.0
  0
VERTEX
  8
0
  6
CONTINUOUS
 62
          30
  5
3BC
 10
-2853.225145168003
 20
-1566.933924325758
 30
0.0
  0
VERTEX
  8
0
  6
CONTINUOUS
 62
          30
  5
3BD
 10
-2861.095470719203
 20
-1565.695452583711
 30
0.0
  0
VERTEX
  8
0
  6
CONTINUOUS
 62
          30
  5
3BE
 10
-2869.425813267769
 20
-1564.825202473081
 30
0.0
  0
VERTEX
  8
0
  6
CONTINUOUS
 62
          30
  5
3BF
 10
-2878.14426956728
 20
-1564.293741108386
 30
0.0
  0
VERTEX
  8
0
  6
CONTINUOUS
 62
          30
  5
3C0
 10
-2887.178936371315
 20
-1564.071635604141
 30
0.0
  0
VERTEX
  8
0
  6
CONTINUOUS
 62
          30
  5
3C1
 10
-2896.457910433452
 20
-1564.129453074866
 30
0.0
  0
VERTEX
  8
0
  6
CONTINUOUS
 62
          30
  5
3C2
 10
-2905.909288507269
 20
-1564.437760635075
 30
0.0
  0
VERTEX
  8
0
  6
CONTINUOUS
 62
          30
  5
3C3
 10
-2915.461167346346
 20
-1564.967125399285
 30
0.0
  0
VERTEX
  8
0
  6
CONTINUOUS
 62
          30
  5
3C4
 10
-2925.04164370426
 20
-1565.688114482015
 30
0.0
  0
VERTEX
  8
0
  6
CONTINUOUS
 62
          30
  5
3C5
 10
-2934.578814334591
 20
-1566.571294997781
 30
0.0
  0
VERTEX
  8
0
  6
CONTINUOUS
 62
          30
  5
3C6
 10
-2944.000775990917
 20
-1567.587234061099
 30
0.0
  0
VERTEX
  8
0
  6
CONTINUOUS
 62
          30
  5
3C7
 10
-2953.235625426817
 20
-1568.706498786486
 30
0.0
  0
VERTEX
  8
0
  6
CONTINUOUS
 62
          30
  5
3C8
 10
-2962.211459395868
 20
-1569.89965628846
 30
0.0
  0
VERTEX
  8
0
  6
CONTINUOUS
 62
          30
  5
3C9
 10
-2970.85637465165
 20
-1571.137273681538
 30
0.0
  0
VERTEX
  8
0
  6
CONTINUOUS
 62
          30
  5
3CA
 10
-2979.098467947741
 20
-1572.389918080235
 30
0.0
  0
VERTEX
  8
0
  6
CONTINUOUS
 62
          30
  5
3CB
 10
-2986.86583603772
 20
-1573.62815659907
 30
0.0
  0
VERTEX
  8
0
  6
CONTINUOUS
 62
          30
  5
3CC
 10
-2994.086575675165
 20
-1574.822556352558
 30
0.0
  0
VERTEX
  8
0
  6
CONTINUOUS
 62
          30
  5
3CD
 10
-3000.688783613655
 20
-1575.943684455217
 30
0.0
  0
SEQEND
  8
0
  6
CONTINUOUS
 62
          30
  5
3CE
  0
ENDBLK
  8
0
  5
3CF
  0
BLOCK
  8
0
  5
421
  2
*E11
 70
           1
 10
0.0
 20
0.0
 30
0.0
  3
*E11
  0
POLYLINE
  8
0
  6
CONTINUOUS
 62
          30
  5
422
 66
           1
 10
0.0
 20
0.0
 30
0.0
 70
         128
  0
VERTEX
  8
0
  6
CONTINUOUS
 62
          30
  5
423
 10
-2965.391723313129
 20
-1708.127643233394
 30
0.0
  0
VERTEX
  8
0
  6
CONTINUOUS
 62
          30
  5
424
 10
-2958.40035908441
 20
-1708.120581427996
 30
0.0
  0
VERTEX
  8
0
  6
CONTINUOUS
 62
          30
  5
425
 10
-2951.359262947276
 20
-1708.069758621665
 30
0.0
  0
VERTEX
  8
0
  6
CONTINUOUS
 62
          30
  5
426
 10
-2944.278811661359
 20
-1707.96430251978
 30
0.0
  0
VERTEX
  8
0
  6
CONTINUOUS
 62
          30
  5
427
 10
-2937.169381986293
 20
-1707.793340827721
 30
0.0
  0
VERTEX
  8
0
  6
CONTINUOUS
 62
          30
  5
428
 10
-2930.04135068171
 20
-1707.546001250866
 30
0.0
  0
VERTEX
  8
0
  6
CONTINUOUS
 62
          30
  5
429
 10
-2922.905094507245
 20
-1707.211411494596
 30
0.0
  0
VERTEX
  8
0
  6
CONTINUOUS
 62
          30
  5
42A
 10
-2915.770990222532
 20
-1706.778699264288
 30
0.0
  0
VERTEX
  8
0
  6
CONTINUOUS
 62
          30
  5
42B
 10
-2908.649414587202
 20
-1706.236992265324
 30
0.0
  0
VERTEX
  8
0
  6
CONTINUOUS
 62
          30
  5
42C
 10
-2901.550744360889
 20
-1705.575418203081
 30
0.0
  0
VERTEX
  8
0
  6
CONTINUOUS
 62
          30
  5
42D
 10
-2894.485356303228
 20
-1704.783104782939
 30
0.0
  0
VERTEX
  8
0
  6
CONTINUOUS
 62
          30
  5
42E
 10
-2887.463627173851
 20
-1703.849179710279
 30
0.0
  0
VERTEX
  8
0
  6
CONTINUOUS
 62
          30
  5
42F
 10
-2880.495933732391
 20
-1702.762770690477
 30
0.0
  0
VERTEX
  8
0
  6
CONTINUOUS
 62
          30
  5
430
 10
-2873.592652738482
 20
-1701.513005428915
 30
0.0
  0
VERTEX
  8
0
  6
CONTINUOUS
 62
          30
  5
431
 10
-2866.764160951758
 20
-1700.089011630972
 30
0.0
  0
VERTEX
  8
0
  6
CONTINUOUS
 62
          30
  5
432
 10
-2860.020835131851
 20
-1698.479917002026
 30
0.0
  0
VERTEX
  8
0
  6
CONTINUOUS
 62
          30
  5
433
 10
-2853.373052038395
 20
-1696.674849247457
 30
0.0
  0
VERTEX
  8
0
  6
CONTINUOUS
 62
          30
  5
434
 10
-2846.831188431024
 20
-1694.662936072644
 30
0.0
  0
VERTEX
  8
0
  6
CONTINUOUS
 62
          30
  5
435
 10
-2840.405621069371
 20
-1692.433305182967
 30
0.0
  0
VERTEX
  8
0
  6
CONTINUOUS
 62
          30
  5
436
 10
-2834.106726713068
 20
-1689.975084283804
 30
0.0
  0
VERTEX
  8
0
  6
CONTINUOUS
 62
          30
  5
437
 10
-2827.94488212175
 20
-1687.277401080536
 30
0.0
  0
SEQEND
  8
0
  6
CONTINUOUS
 62
          30
  5
438
  0
ENDBLK
  8
0
  5
439
  0
BLOCK
  8
0
  5
51C
  2
*E12
 70
           1
 10
0.0
 20
0.0
 30
0.0
  3
*E12
  0
POLYLINE
  8
0
  6
CONTINUOUS
 62
           5
  5
51D
 66
           1
 10
0.0
 20
0.0
 30
0.0
 70
         128
  0
VERTEX
  8
0
  6
CONTINUOUS
 62
           5
  5
51E
 10
-2699.752758492611
 20
-1040.950220808538
 30
0.0
  0
VERTEX
  8
0
  6
CONTINUOUS
 62
           5
  5
51F
 10
-2697.166620002802
 20
-1041.048947824601
 30
0.0
  0
VERTEX
  8
0
  6
CONTINUOUS
 62
           5
  5
520
 10
-2694.60175124712
 20
-1041.187023849349
 30
0.0
  0
VERTEX
  8
0
  6
CONTINUOUS
 62
           5
  5
521
 10
-2692.057032765872
 20
-1041.362377882323
 30
0.0
  0
VERTEX
  8
0
  6
CONTINUOUS
 62
           5
  5
522
 10
-2689.531345099368
 20
-1041.572938923068
 30
0.0
  0
VERTEX
  8
0
  6
CONTINUOUS
 62
           5
  5
523
 10
-2687.023568787917
 20
-1041.816635971125
 30
0.0
  0
VERTEX
  8
0
  6
CONTINUOUS
 62
           5
  5
524
 10
-2684.532584371829
 20
-1042.091398026038
 30
0.0
  0
VERTEX
  8
0
  6
CONTINUOUS
 62
           5
  5
525
 10
-2682.057272391412
 20
-1042.39515408735
 30
0.0
  0
VERTEX
  8
0
  6
CONTINUOUS
 62
           5
  5
526
 10
-2679.596513386976
 20
-1042.725833154604
 30
0.0
  0
VERTEX
  8
0
  6
CONTINUOUS
 62
           5
  5
527
 10
-2677.14918789883
 20
-1043.081364227342
 30
0.0
  0
VERTEX
  8
0
  6
CONTINUOUS
 62
           5
  5
528
 10
-2674.714176467282
 20
-1043.459676305108
 30
0.0
  0
VERTEX
  8
0
  6
CONTINUOUS
 62
           5
  5
529
 10
-2672.290359632644
 20
-1043.858698387445
 30
0.0
  0
VERTEX
  8
0
  6
CONTINUOUS
 62
           5
  5
52A
 10
-2669.876617935222
 20
-1044.276359473896
 30
0.0
  0
VERTEX
  8
0
  6
CONTINUOUS
 62
           5
  5
52B
 10
-2667.471831915328
 20
-1044.710588564002
 30
0.0
  0
VERTEX
  8
0
  6
CONTINUOUS
 62
           5
  5
52C
 10
-2665.074882113268
 20
-1045.159314657308
 30
0.0
  0
VERTEX
  8
0
  6
CONTINUOUS
 62
           5
  5
52D
 10
-2662.684649069354
 20
-1045.620466753357
 30
0.0
  0
VERTEX
  8
0
  6
CONTINUOUS
 62
           5
  5
52E
 10
-2660.300013323894
 20
-1046.091973851691
 30
0.0
  0
VERTEX
  8
0
  6
CONTINUOUS
 62
           5
  5
52F
 10
-2657.919855417198
 20
-1046.571764951853
 30
0.0
  0
VERTEX
  8
0
  6
CONTINUOUS
 62
           5
  5
530
 10
-2655.543055889574
 20
-1047.057769053386
 30
0.0
  0
VERTEX
  8
0
  6
CONTINUOUS
 62
           5
  5
531
 10
-2653.168495281331
 20
-1047.547915155833
 30
0.0
  0
VERTEX
  8
0
  6
CONTINUOUS
 62
           5
  5
532
 10
-2650.795054132779
 20
-1048.040132258738
 30
0.0
  0
SEQEND
  8
0
  6
CONTINUOUS
 62
           5
  5
533
  0
ENDBLK
  8
0
  5
534
  0
BLOCK
  8
0
  5
538
  2
*E13
 70
           1
 10
0.0
 20
0.0
 30
0.0
  3
*E13
  0
POLYLINE
  8
0
  6
CONTINUOUS
 62
           5
  5
539
 66
           1
 10
0.0
 20
0.0
 30
0.0
 70
         128
  0
VERTEX
  8
0
  6
CONTINUOUS
 62
           5
  5
53A
 10
-2699.937959850346
 20
-1098.366654828034
 30
0.0
  0
VERTEX
  8
0
  6
CONTINUOUS
 62
           5
  5
53B
 10
-2696.914899692048
 20
-1098.07289655998
 30
0.0
  0
VERTEX
  8
0
  6
CONTINUOUS
 62
           5
  5
53C
 10
-2693.998588722363
 20
-1097.774330052647
 30
0.0
  0
VERTEX
  8
0
  6
CONTINUOUS
 62
           5
  5
53D
 10
-2691.18116374095
 20
-1097.470425430454
 30
0.0
  0
VERTEX
  8
0
  6
CONTINUOUS
 62
           5
  5
53E
 10
-2688.454761547469
 20
-1097.160652817824
 30
0.0
  0
VERTEX
  8
0
  6
CONTINUOUS
 62
           5
  5
53F
 10
-2685.811518941579
 20
-1096.844482339179
 30
0.0
  0
VERTEX
  8
0
  6
CONTINUOUS
 62
           5
  5
540
 10
-2683.24357272294
 20
-1096.521384118941
 30
0.0
  0
VERTEX
  8
0
  6
CONTINUOUS
 62
           5
  5
541
 10
-2680.743059691212
 20
-1096.190828281532
 30
0.0
  0
VERTEX
  8
0
  6
CONTINUOUS
 62
           5
  5
542
 10
-2678.302116646055
 20
-1095.852284951375
 30
0.0
  0
VERTEX
  8
0
  6
CONTINUOUS
 62
           5
  5
543
 10
-2675.912880387128
 20
-1095.505224252891
 30
0.0
  0
VERTEX
  8
0
  6
CONTINUOUS
 62
           5
  5
544
 10
-2673.56748771409
 20
-1095.149116310501
 30
0.0
  0
VERTEX
  8
0
  6
CONTINUOUS
 62
           5
  5
545
 10
-2671.258075426602
 20
-1094.78343124863
 30
0.0
  0
VERTEX
  8
0
  6
CONTINUOUS
 62
           5
  5
546
 10
-2668.976780324324
 20
-1094.407639191697
 30
0.0
  0
VERTEX
  8
0
  6
CONTINUOUS
 62
           5
  5
547
 10
-2666.715739206913
 20
-1094.021210264127
 30
0.0
  0
VERTEX
  8
0
  6
CONTINUOUS
 62
           5
  5
548
 10
-2664.467088874032
 20
-1093.623614590339
 30
0.0
  0
VERTEX
  8
0
  6
CONTINUOUS
 62
           5
  5
549
 10
-2662.222966125338
 20
-1093.214322294757
 30
0.0
  0
VERTEX
  8
0
  6
CONTINUOUS
 62
           5
  5
54A
 10
-2659.975507760492
 20
-1092.792803501803
 30
0.0
  0
VERTEX
  8
0
  6
CONTINUOUS
 62
           5
  5
54B
 10
-2657.716850579154
 20
-1092.358528335898
 30
0.0
  0
VERTEX
  8
0
  6
CONTINUOUS
 62
           5
  5
54C
 10
-2655.439131380982
 20
-1091.910966921464
 30
0.0
  0
VERTEX
  8
0
  6
CONTINUOUS
 62
           5
  5
54D
 10
-2653.134486965637
 20
-1091.449589382924
 30
0.0
  0
VERTEX
  8
0
  6
CONTINUOUS
 62
           5
  5
54E
 10
-2650.795054132779
 20
-1090.9738658447
 30
0.0
  0
SEQEND
  8
0
  6
CONTINUOUS
 62
           5
  5
54F
  0
ENDBLK
  8
0
  5
550
  0
BLOCK
  8
0
  5
5BD
  2
*E14
 70
           1
 10
0.0
 20
0.0
 30
0.0
  3
*E14
  0
POLYLINE
  8
0
  6
CONTINUOUS
 62
           7
  5
5BE
 66
           1
 10
0.0
 20
0.0
 30
0.0
 70
         128
  0
VERTEX
  8
0
  6
CONTINUOUS
 62
           7
  5
5BF
 10
-2884.648149241732
 20
-1102.669597691826
 30
0.0
  0
VERTEX
  8
0
  6
CONTINUOUS
 62
           7
  5
5C0
 10
-2882.655387631678
 20
-1103.574645589904
 30
0.0
  0
VERTEX
  8
0
  6
CONTINUOUS
 62
           7
  5
5C1
 10
-2880.659391246573
 20
-1104.513969218105
 30
0.0
  0
VERTEX
  8
0
  6
CONTINUOUS
 62
           7
  5
5C2
 10
-2878.661813618571
 20
-1105.488417150768
 30
0.0
  0
VERTEX
  8
0
  6
CONTINUOUS
 62
           7
  5
5C3
 10
-2876.66430827983
 20
-1106.498837962235
 30
0.0
  0
VERTEX
  8
0
  6
CONTINUOUS
 62
           7
  5
5C4
 10
-2874.668528762503
 20
-1107.546080226846
 30
0.0
  0
VERTEX
  8
0
  6
CONTINUOUS
 62
           7
  5
5C5
 10
-2872.676128598749
 20
-1108.630992518945
 30
0.0
  0
VERTEX
  8
0
  6
CONTINUOUS
 62
           7
  5
5C6
 10
-2870.688761320723
 20
-1109.754423412871
 30
0.0
  0
VERTEX
  8
0
  6
CONTINUOUS
 62
           7
  5
5C7
 10
-2868.708080460581
 20
-1110.917221482966
 30
0.0
  0
VERTEX
  8
0
  6
CONTINUOUS
 62
           7
  5
5C8
 10
-2866.735739550478
 20
-1112.120235303571
 30
0.0
  0
VERTEX
  8
0
  6
CONTINUOUS
 62
           7
  5
5C9
 10
-2864.773392122572
 20
-1113.364313449028
 30
0.0
  0
VERTEX
  8
0
  6
CONTINUOUS
 62
           7
  5
5CA
 10
-2862.822691709018
 20
-1114.650304493678
 30
0.0
  0
VERTEX
  8
0
  6
CONTINUOUS
 62
           7
  5
5CB
 10
-2860.885291841972
 20
-1115.979057011862
 30
0.0
  0
VERTEX
  8
0
  6
CONTINUOUS
 62
           7
  5
5CC
 10
-2858.96284605359
 20
-1117.351419577921
 30
0.0
  0
VERTEX
  8
0
  6
CONTINUOUS
 62
           7
  5
5CD
 10
-2857.057007876028
 20
-1118.768240766197
 30
0.0
  0
VERTEX
  8
0
  6
CONTINUOUS
 62
           7
  5
5CE
 10
-2855.169430841443
 20
-1120.230369151032
 30
0.0
  0
VERTEX
  8
0
  6
CONTINUOUS
 62
           7
  5
5CF
 10
-2853.301768481989
 20
-1121.738653306765
 30
0.0
  0
VERTEX
  8
0
  6
CONTINUOUS
 62
           7
  5
5D0
 10
-2851.455674329824
 20
-1123.293941807738
 30
0.0
  0
VERTEX
  8
0
  6
CONTINUOUS
 62
           7
  5
5D1
 10
-2849.632801917103
 20
-1124.897083228294
 30
0.0
  0
VERTEX
  8
0
  6
CONTINUOUS
 62
           7
  5
5D2
 10
-2847.834804775982
 20
-1126.548926142772
 30
0.0
  0
VERTEX
  8
0
  6
CONTINUOUS
 62
           7
  5
5D3
 10
-2846.063336438618
 20
-1128.250319125516
 30
0.0
  0
SEQEND
  8
0
  6
CONTINUOUS
 62
           7
  5
5D4
  0
ENDBLK
  8
0
  5
5D5
  0
ENDSEC
  0
SECTION
  2
ENTITIES
  0
POLYLINE
  8
0
  6
CONTINUOUS
 62
          93
  5
37
 66
           1
 10
0.0
 20
0.0
 30
0.0
 70
         128
  0
VERTEX
  8
0
  6
CONTINUOUS
 62
          93
  5
38
 10
-1396.876830803042
 20
-1064.232031479521
 30
0.0
  0
VERTEX
  8
0
  6
CONTINUOUS
 62
          93
  5
39
 10
-1400.13318687007
 20
-1062.06800732345
 30
0.0
  0
VERTEX
  8
0
  6
CONTINUOUS
 62
          93
  5
3A
 10
-1408.924283286666
 20
-1057.403630020287
 30
0.0
  0
VERTEX
  8
0
  6
CONTINUOUS
 62
          93
  5
3B
 10
-1418.681900512707
 20
-1053.214236008115
 30
0.0
  0
VERTEX
  8
0
  6
CONTINUOUS
 62
          93
  5
3C
 10
-1429.352125455933
 20
-1049.475161725021
 30
0.0
  0
VERTEX
  8
0
  6
CONTINUOUS
 62
          93
  5
3D
 10
-1440.881045024081
 20
-1046.161743609089
 30
0.0
  0
VERTEX
  8
0
  6
CONTINUOUS
 62
          93
  5
3E
 10
-1453.214746124892
 20
-1043.249318098406
 30
0.0
  0
VERTEX
  8
0
  6
CONTINUOUS
 62
          93
  5
3F
 10
-1466.299315666105
 20
-1040.713221631056
 30
0.0
  0
VERTEX
  8
0
  6
CONTINUOUS
 62
          93
  5
40
 10
-1480.080840555459
 20
-1038.528790645126
 30
0.0
  0
VERTEX
  8
0
  6
CONTINUOUS
 62
          93
  5
41
 10
-1494.505407700693
 20
-1036.671361578699
 30
0.0
  0
VERTEX
  8
0
  6
CONTINUOUS
 62
          93
  5
42
 10
-1509.519104009547
 20
-1035.116270869864
 30
0.0
  0
VERTEX
  8
0
  6
CONTINUOUS
 62
          93
  5
43
 10
-1525.06801638976
 20
-1033.838854956704
 30
0.0
  0
VERTEX
  8
0
  6
CONTINUOUS
 62
          93
  5
44
 10
-1541.098231749071
 20
-1032.814450277305
 30
0.0
  0
VERTEX
  8
0
  6
CONTINUOUS
 62
          93
  5
45
 10
-1557.55583699522
 20
-1032.018393269753
 30
0.0
  0
VERTEX
  8
0
  6
CONTINUOUS
 62
          93
  5
46
 10
-1574.386919035945
 20
-1031.426020372134
 30
0.0
  0
VERTEX
  8
0
  6
CONTINUOUS
 62
          93
  5
47
 10
-1591.537564778987
 20
-1031.012668022532
 30
0.0
  0
VERTEX
  8
0
  6
CONTINUOUS
 62
          93
  5
48
 10
-1608.953861132083
 20
-1030.753672659034
 30
0.0
  0
VERTEX
  8
0
  6
CONTINUOUS
 62
          93
  5
49
 10
-1626.581895002975
 20
-1030.624370719724
 30
0.0
  0
VERTEX
  8
0
  6
CONTINUOUS
 62
          93
  5
4A
 10
-1644.3677532994
 20
-1030.600098642689
 30
0.0
  0
VERTEX
  8
0
  6
CONTINUOUS
 62
          93
  5
4B
 10
-1662.257522929098
 20
-1030.656192866014
 30
0.0
  0
VERTEX
  8
0
  6
CONTINUOUS
 62
          93
  5
4C
 10
-1680.197290799808
 20
-1030.767989827784
 30
0.0
  0
SEQEND
  8
0
  6
CONTINUOUS
 62
          93
  5
4D
  0
LINE
  8
0
  6
CONTINUOUS
 62
          93
  5
4E
 10
-1680.197290799808
 20
-1030.767989827784
 30
0.0
 11
-1680.197290799808
 21
-1028.232657688148
 31
0.0
  0
LINE
  8
0
  6
CONTINUOUS
 62
          93
  5
4F
 10
-1680.197290799808
 20
-1028.232657688148
 30
0.0
 11
-1662.748240191726
 21
-1028.232657688148
 31
0.0
  0
LINE
  8
0
  6
CONTINUOUS
 62
          93
  5
50
 10
-1662.748240191726
 20
-1028.232657688148
 30
0.0
 11
-1662.748240191726
 21
-991.395773071085
 31
0.0
  0
LINE
  8
0
  6
CONTINUOUS
 62
          93
  5
51
 10
-1689.059457196817
 20
-987.425582504352
 30
0.0
 11
-1859.758461143709
 21
-921.003021910501
 31
0.0
  0
LINE
  8
0
  6
CONTINUOUS
 62
          93
  5
52
 10
-1859.75846114374
 20
-921.003021910469
 30
0.0
 11
-2121.556199943026
 21
-818.880267608032
 31
0.0
  0
LINE
  8
0
  6
CONTINUOUS
 62
          93
  5
53
 10
-2121.556199943026
 20
-818.880267608032
 30
0.0
 11
-2130.225237320908
 21
-817.232031479519
 31
0.0
  0
LINE
  8
0
  6
CONTINUOUS
 62
          93
  5
54
 10
-2130.225237320908
 20
-817.232031479519
 30
0.0
 11
-2139.795271054676
 21
-819.553483116953
 31
0.0
  0
LINE
  8
0
  6
CONTINUOUS
 62
          93
  5
55
 10
-2139.795271054676
 20
-819.553483116953
 30
0.0
 11
-2154.839624911954
 21
-825.406133433281
 31
0.0
  0
LINE
  8
0
  6
CONTINUOUS
 62
          93
  5
56
 10
-2154.839624911954
 20
-825.406133433281
 30
0.0
 11
-2177.099880050403
 21
-837.229782136049
 31
0.0
  0
LINE
  8
0
  6
CONTINUOUS
 62
          93
  5
57
 10
-2177.099880050403
 20
-837.229782136049
 30
0.0
 11
-2192.470562519891
 21
-847.754051325367
 31
0.0
  0
LINE
  8
0
  6
CONTINUOUS
 62
          93
  5
58
 10
-2047.969588197459
 20
-963.208845171612
 30
0.0
 11
-2205.085612251001
 21
-841.773892551267
 31
0.0
  0
LINE
  8
0
  6
CONTINUOUS
 62
          93
  5
59
 10
-2205.085612251001
 20
-841.773892551267
 30
0.0
 11
-2211.796785561802
 21
-839.163991819288
 31
0.0
  0
LINE
  8
0
  6
CONTINUOUS
 62
          93
  5
5A
 10
-2211.796785561802
 20
-839.163991819288
 30
0.0
 11
-2216.270901102336
 21
-838.86571744992
 31
0.0
  0
LINE
  8
0
  6
CONTINUOUS
 62
          93
  5
5B
 10
-2216.270901102336
 20
-838.86571744992
 30
0.0
 11
-2221.938114120346
 21
-838.940286042262
 31
0.0
  0
LINE
  8
0
  6
CONTINUOUS
 62
          93
  5
5C
 10
-2221.938114120346
 20
-838.940286042262
 30
0.0
 11
-2226.785072618676
 21
-841.363765294589
 31
0.0
  0
LINE
  8
0
  6
CONTINUOUS
 62
          93
  5
5D
 10
-2226.785072618676
 20
-841.363765294589
 30
0.0
 11
-2244.234123226759
 21
-863.137794258521
 31
0.0
  0
LINE
  8
0
  6
CONTINUOUS
 62
          93
  5
5E
 10
-2244.234123226759
 20
-863.137794258521
 30
0.0
 11
-2225.219132174135
 21
-957.392494971601
 31
0.0
  0
LINE
  8
0
  6
CONTINUOUS
 62
          93
  5
5F
 10
-2225.219132174135
 20
-957.392494971601
 30
0.0
 11
-2192.408951543553
 21
-972.604487809417
 31
0.0
  0
LINE
  8
0
  6
CONTINUOUS
 62
          93
  5
60
 10
-2192.408951543553
 20
-972.604487809417
 30
0.0
 11
-2201.804594178674
 21
-973.648448102208
 31
0.0
  0
LINE
  8
0
  6
CONTINUOUS
 62
          93
  5
61
 10
-2201.804594178674
 20
-973.648448102208
 30
0.0
 11
-2201.804594178674
 21
-1022.640013263203
 31
0.0
  0
LINE
  8
0
  6
CONTINUOUS
 62
          93
  5
62
 10
-2201.804594178674
 20
-1022.640013263203
 30
0.0
 11
-2191.961539992005
 21
-1025.622756956893
 31
0.0
  0
LINE
  8
0
  6
CONTINUOUS
 62
          93
  5
63
 10
-2191.961539992005
 20
-1025.622756956893
 30
0.0
 11
-2209.112316230719
 21
-1032.333930267694
 31
0.0
  0
LINE
  8
0
  6
CONTINUOUS
 62
          93
  5
64
 10
-2209.112316230719
 20
-1032.333930267694
 30
0.0
 11
-2209.112316230719
 21
-1053.660547677572
 31
0.0
  0
LINE
  8
0
  6
CONTINUOUS
 62
          93
  5
65
 10
-2209.112316230719
 20
-1053.660547677572
 30
0.0
 11
-2235.360460735185
 21
-1053.660547677572
 31
0.0
  0
LINE
  8
0
  6
CONTINUOUS
 62
          93
  5
66
 10
-2235.360460735185
 20
-1053.660547677572
 30
0.0
 11
-2239.088890352296
 21
-1054.406233600995
 31
0.0
  0
LINE
  8
0
  6
CONTINUOUS
 62
          93
  5
67
 10
-2239.088890352296
 20
-1054.406233600995
 30
0.0
 11
-2240.095566353241
 21
-1058.675285504849
 31
0.0
  0
LINE
  8
0
  6
CONTINUOUS
 62
          93
  5
68
 10
-2240.095566353241
 20
-1058.675285504849
 30
0.0
 11
-2244.345976114001
 21
-1058.675285504849
 31
0.0
  0
LINE
  8
0
  6
CONTINUOUS
 62
          93
  5
69
 10
-2244.345976114001
 20
-1058.675285504849
 30
0.0
 11
-2244.345976114001
 21
-1067.23203147952
 31
0.0
  0
LINE
  8
0
  6
CONTINUOUS
 62
          93
  5
6A
 10
-2192.470562519891
 20
-847.754051325367
 30
0.0
 11
-2034.589619501401
 21
-964.12528138367
 31
0.0
  0
INSERT
  8
0
  6
CONTINUOUS
 62
          93
  5
85
  2
*E1
 10
0.0
 20
0.0
 30
0.0
1001
TCAD
1000
TCW_CUSTOM_DATA
1002
{
1000
#$AUX@_ToolInfo Properties
1070
           8
1000
Insert^JCurve^JBezier@Curve Bezier
1002
}
1000
TC25ExternalObject
1002
{
1000
TCW30CURVE
1000

1070
           0
1071
  3263537
1040
1.0
1040
0.0
1000
Continuous
1000
0
1071
        4
1071
      162
1010
-1662.748240191726
1020
-991.395773071085
1030
0.0
1071
     6274
1010
-1822.213174888439
1020
-964.979849244914
1030
0.0
1071
     6274
1010
-2017.284612413724
1020
-974.972040629466
1030
0.0
1071
      162
1010
-2201.804594178674
1020
-973.648448102208
1030
0.0
1070
           3
1071
-2147483643
1070
           1
1000
#$AUX@_ToolInfo Properties
1070
           8
1000
Insert^JCurve^JBezier@Curve Bezier
1000
$SPLINESEGS
1070
          18
1070
          20
1000
$SPLFRAME
1070
          18
1070
           0
1000
$SPLINETYPE
1070
          18
1070
           1
1000
$SHOWCONTRPTS
1070
          18
1070
           1
1000
$CURVESMOOTH
1070
          18
1070
           1
1002
}
  0
POLYLINE
  8
0
  6
CONTINUOUS
 62
          93
  5
86
 66
           1
 10
0.0
 20
0.0
 30
0.0
 70
         128
  0
VERTEX
  8
0
  6
CONTINUOUS
 62
          93
  5
87
 10
-1396.876830803046
 20
-1070.232031479521
 30
0.0
  0
VERTEX
  8
0
  6
CONTINUOUS
 62
          93
  5
88
 10
-1400.13318687007
 20
-1072.396055635589
 30
0.0
  0
VERTEX
  8
0
  6
CONTINUOUS
 62
          93
  5
89
 10
-1408.924283286666
 20
-1077.060432938752
 30
0.0
  0
VERTEX
  8
0
  6
CONTINUOUS
 62
          93
  5
8A
 10
-1418.681900512707
 20
-1081.249826950923
 30
0.0
  0
VERTEX
  8
0
  6
CONTINUOUS
 62
          93
  5
8B
 10
-1429.352125455933
 20
-1084.988901234018
 30
0.0
  0
VERTEX
  8
0
  6
CONTINUOUS
 62
          93
  5
8C
 10
-1440.881045024081
 20
-1088.302319349949
 30
0.0
  0
VERTEX
  8
0
  6
CONTINUOUS
 62
          93
  5
8D
 10
-1453.214746124892
 20
-1091.214744860633
 30
0.0
  0
VERTEX
  8
0
  6
CONTINUOUS
 62
          93
  5
8E
 10
-1466.299315666105
 20
-1093.750841327983
 30
0.0
  0
VERTEX
  8
0
  6
CONTINUOUS
 62
          93
  5
8F
 10
-1480.080840555459
 20
-1095.935272313914
 30
0.0
  0
VERTEX
  8
0
  6
CONTINUOUS
 62
          93
  5
90
 10
-1494.505407700693
 20
-1097.79270138034
 30
0.0
  0
VERTEX
  8
0
  6
CONTINUOUS
 62
          93
  5
91
 10
-1509.519104009547
 20
-1099.347792089175
 30
0.0
  0
VERTEX
  8
0
  6
CONTINUOUS
 62
          93
  5
92
 10
-1525.06801638976
 20
-1100.625208002335
 30
0.0
  0
VERTEX
  8
0
  6
CONTINUOUS
 62
          93
  5
93
 10
-1541.098231749071
 20
-1101.649612681734
 30
0.0
  0
VERTEX
  8
0
  6
CONTINUOUS
 62
          93
  5
94
 10
-1557.55583699522
 20
-1102.445669689286
 30
0.0
  0
VERTEX
  8
0
  6
CONTINUOUS
 62
          93
  5
95
 10
-1574.386919035945
 20
-1103.038042586906
 30
0.0
  0
VERTEX
  8
0
  6
CONTINUOUS
 62
          93
  5
96
 10
-1591.537564778986
 20
-1103.451394936507
 30
0.0
  0
VERTEX
  8
0
  6
CONTINUOUS
 62
          93
  5
97
 10
-1608.953861132083
 20
-1103.710390300006
 30
0.0
  0
VERTEX
  8
0
  6
CONTINUOUS
 62
          93
  5
98
 10
-1626.581895002974
 20
-1103.839692239315
 30
0.0
  0
VERTEX
  8
0
  6
CONTINUOUS
 62
          93
  5
99
 10
-1644.367753299399
 20
-1103.86396431635
 30
0.0
  0
VERTEX
  8
0
  6
CONTINUOUS
 62
          93
  5
9A
 10
-1662.257522929097
 20
-1103.807870093025
 30
0.0
  0
VERTEX
  8
0
  6
CONTINUOUS
 62
          93
  5
9B
 10
-1680.197290799808
 20
-1103.696073131255
 30
0.0
  0
SEQEND
  8
0
  6
CONTINUOUS
 62
          93
  5
9C
  0
LINE
  8
0
  6
CONTINUOUS
 62
          93
  5
9D
 10
-1680.197290799808
 20
-1103.696073131255
 30
0.0
 11
-1680.197290799808
 21
-1106.231405270891
 31
0.0
  0
LINE
  8
0
  6
CONTINUOUS
 62
          93
  5
9E
 10
-1680.197290799808
 20
-1106.231405270891
 30
0.0
 11
-1662.748240191725
 21
-1106.231405270891
 31
0.0
  0
LINE
  8
0
  6
CONTINUOUS
 62
          93
  5
9F
 10
-1662.748240191725
 20
-1106.231405270891
 30
0.0
 11
-1662.748240191725
 21
-1143.068289887954
 31
0.0
  0
LINE
  8
0
  6
CONTINUOUS
 62
          93
  5
A0
 10
-1859.75846114374
 20
-1213.46104104857
 30
0.0
 11
-2121.556199943025
 21
-1315.583795351007
 31
0.0
  0
LINE
  8
0
  6
CONTINUOUS
 62
          93
  5
A1
 10
-2121.556199943025
 20
-1315.583795351007
 30
0.0
 11
-2130.225237320908
 21
-1317.23203147952
 31
0.0
  0
LINE
  8
0
  6
CONTINUOUS
 62
          93
  5
A2
 10
-2130.225237320908
 20
-1317.23203147952
 30
0.0
 11
-2139.795271054676
 21
-1314.910579842086
 31
0.0
  0
LINE
  8
0
  6
CONTINUOUS
 62
          93
  5
A3
 10
-2139.795271054676
 20
-1314.910579842086
 30
0.0
 11
-2154.839624911954
 21
-1309.057929525758
 31
0.0
  0
LINE
  8
0
  6
CONTINUOUS
 62
          93
  5
A4
 10
-2154.839624911954
 20
-1309.057929525758
 30
0.0
 11
-2177.099880050403
 21
-1297.23428082299
 31
0.0
  0
LINE
  8
0
  6
CONTINUOUS
 62
          93
  5
A5
 10
-2177.099880050403
 20
-1297.23428082299
 30
0.0
 11
-2192.470562519891
 21
-1286.710011633672
 31
0.0
  0
LINE
  8
0
  6
CONTINUOUS
 62
          93
  5
A6
 10
-2047.969588197459
 20
-1171.255217787428
 30
0.0
 11
-2205.085612251001
 21
-1292.690170407772
 31
0.0
  0
LINE
  8
0
  6
CONTINUOUS
 62
          93
  5
A7
 10
-2205.085612251001
 20
-1292.690170407772
 30
0.0
 11
-2211.796785561802
 21
-1295.30007113975
 31
0.0
  0
LINE
  8
0
  6
CONTINUOUS
 62
          93
  5
A8
 10
-2211.796785561802
 20
-1295.30007113975
 30
0.0
 11
-2216.270901102336
 21
-1295.598345509119
 31
0.0
  0
LINE
  8
0
  6
CONTINUOUS
 62
          93
  5
A9
 10
-2216.270901102336
 20
-1295.598345509119
 30
0.0
 11
-2221.938114120346
 21
-1295.523776916777
 31
0.0
  0
LINE
  8
0
  6
CONTINUOUS
 62
          93
  5
AA
 10
-2221.938114120346
 20
-1295.523776916777
 30
0.0
 11
-2226.785072618676
 21
-1293.10029766445
 31
0.0
  0
LINE
  8
0
  6
CONTINUOUS
 62
          93
  5
AB
 10
-2226.785072618676
 20
-1293.10029766445
 30
0.0
 11
-2244.234123226759
 21
-1271.326268700518
 31
0.0
  0
LINE
  8
0
  6
CONTINUOUS
 62
          93
  5
AC
 10
-2244.234123226759
 20
-1271.326268700518
 30
0.0
 11
-2225.219132174135
 21
-1177.071567987437
 31
0.0
  0
LINE
  8
0
  6
CONTINUOUS
 62
          93
  5
AD
 10
-2225.219132174135
 20
-1177.071567987437
 30
0.0
 11
-2192.408951543553
 21
-1161.859575149622
 31
0.0
  0
LINE
  8
0
  6
CONTINUOUS
 62
          93
  5
AE
 10
-2192.408951543553
 20
-1161.859575149622
 30
0.0
 11
-2201.804594178674
 21
-1160.815614856831
 31
0.0
  0
LINE
  8
0
  6
CONTINUOUS
 62
          93
  5
AF
 10
-2201.804594178674
 20
-1160.815614856831
 30
0.0
 11
-2201.804594178674
 21
-1111.824049695835
 31
0.0
  0
LINE
  8
0
  6
CONTINUOUS
 62
          93
  5
B0
 10
-2201.804594178674
 20
-1111.824049695835
 30
0.0
 11
-2191.961539992005
 21
-1108.841306002146
 31
0.0
  0
LINE
  8
0
  6
CONTINUOUS
 62
          93
  5
B1
 10
-2191.961539992005
 20
-1108.841306002146
 30
0.0
 11
-2209.112316230718
 21
-1102.130132691345
 31
0.0
  0
LINE
  8
0
  6
CONTINUOUS
 62
          93
  5
B2
 10
-2209.112316230718
 20
-1102.130132691345
 30
0.0
 11
-2209.112316230718
 21
-1080.803515281466
 31
0.0
  0
LINE
  8
0
  6
CONTINUOUS
 62
          93
  5
B3
 10
-2209.112316230718
 20
-1080.803515281466
 30
0.0
 11
-2235.360460735184
 21
-1080.803515281466
 31
0.0
  0
LINE
  8
0
  6
CONTINUOUS
 62
          93
  5
B4
 10
-2235.360460735184
 20
-1080.803515281466
 30
0.0
 11
-2239.088890352296
 21
-1080.057829358044
 31
0.0
  0
LINE
  8
0
  6
CONTINUOUS
 62
          93
  5
B5
 10
-2239.088890352296
 20
-1080.057829358044
 30
0.0
 11
-2240.095566353241
 21
-1075.78877745419
 31
0.0
  0
LINE
  8
0
  6
CONTINUOUS
 62
          93
  5
B6
 10
-2240.095566353241
 20
-1075.78877745419
 30
0.0
 11
-2244.345976114001
 21
-1075.78877745419
 31
0.0
  0
LINE
  8
0
  6
CONTINUOUS
 62
          93
  5
B7
 10
-2244.345976114001
 20
-1075.78877745419
 30
0.0
 11
-2244.345976114001
 21
-1067.232031479519
 31
0.0
  0
LINE
  8
0
  6
CONTINUOUS
 62
          93
  5
B8
 10
-2192.470562519891
 20
-1286.710011633672
 30
0.0
 11
-2034.589619501401
 21
-1170.338781575369
 31
0.0
  0
LINE
  8
0
  6
CONTINUOUS
 62
          93
  5
B9
 10
-2034.589619501401
 20
-964.12528138367
 30
0.0
 11
-2047.969588197459
 21
-963.208845171612
 31
0.0
  0
LINE
  8
0
  6
CONTINUOUS
 62
          93
  5
BA
 10
-2034.589619501401
 20
-1170.338781575369
 30
0.0
 11
-2047.969588197459
 21
-1171.255217787428
 31
0.0
  0
POLYLINE
  8
0
  6
CONTINUOUS
 62
          30
  5
BB
 66
           1
 10
0.0
 20
0.0
 30
0.0
 70
         129
1001
TCAD
1000
TCW_CUSTOM_DATA
1002
{
1000
#$AUX@_ToolInfo Properties
1070
           8
1000
Insert^JLine^JRectangle@Line Rectangle
1002
}
  0
VERTEX
  8
0
  6
CONTINUOUS
 62
          30
  5
BC
 10
-1966.945988259516
 20
-1064.232031479521
 30
0.0
  0
VERTEX
  8
0
  6
CONTINUOUS
 62
          30
  5
BD
 10
-1392.572101068118
 20
-1064.232031479521
 30
0.0
  0
VERTEX
  8
0
  6
CONTINUOUS
 62
          30
  5
BE
 10
-1392.572101068118
 20
-1070.232031479521
 30
0.0
  0
VERTEX
  8
0
  6
CONTINUOUS
 62
          30
  5
BF
 10
-1966.945988259516
 20
-1070.232031479521
 30
0.0
  0
SEQEND
  8
0
  6
CONTINUOUS
 62
          30
  5
C0
  0
INSERT
  8
0
  6
CONTINUOUS
 62
          93
  5
DB
  2
*E2
 10
0.0
 20
0.0
 30
0.0
1001
TCAD
1000
TCW_CUSTOM_DATA
1002
{
1000
#$AUX@_ToolInfo Properties
1070
           8
1000
Insert^JCurve^JBezier@Curve Bezier
1002
}
1000
TC25ExternalObject
1002
{
1000
TCW30CURVE
1000

1070
           0
1071
  3263537
1040
1.0
1040
0.0
1000
Continuous
1000
0
1071
        4
1071
      162
1010
-1392.362523927587
1020
-722.471708067604
1030
0.0
1071
     6274
1010
-1551.322297625741
1020
-693.595518461187
1030
0.0
1071
     6274
1010
-1702.347580703402
1020
-696.077672022676
1030
0.0
1071
      162
1010
-1827.466952937712
1020
-697.665491170885
1030
0.0
1070
           3
1071
-2147483643
1070
           1
1000
#$AUX@_ToolInfo Properties
1070
           8
1000
Insert^JCurve^JBezier@Curve Bezier
1000
$SPLINESEGS
1070
          18
1070
          20
1000
$SPLFRAME
1070
          18
1070
           0
1000
$SPLINETYPE
1070
          18
1070
           1
1000
$SHOWCONTRPTS
1070
          18
1070
           1
1000
$CURVESMOOTH
1070
          18
1070
           1
1002
}
  0
INSERT
  8
0
  6
CONTINUOUS
 62
          93
  5
F6
  2
*E3
 10
0.0
 20
0.0
 30
0.0
1001
TCAD
1000
TCW_REFPOINT
1002
{
1010
-1827.466952937712
1020
-703.665974292788
1030
0.0
1002
}
1000
TCW_CUSTOM_DATA
1002
{
1000
#$AUX@_ToolInfo Properties
1070
           8
1000
Insert^JCurve^JBezier@Curve Bezier
1002
}
1000
TC25ExternalObject
1002
{
1000
TCW30CURVE
1000

1070
           0
1071
  3263537
1040
1.0
1040
0.0
1000
Continuous
1000
0
1070
          18
1010
-1827.466952937712
1020
-703.665974292788
1030
0.0
1071
        4
1071
      162
1010
-1392.362523927587
1020
-728.471708067604
1030
0.0
1071
     6274
1010
-1551.322297625741
1020
-699.595518461187
1030
0.0
1071
     6274
1010
-1702.347580703402
1020
-702.078155144579
1030
0.0
1071
      162
1010
-1827.466952937712
1020
-703.665974292788
1030
0.0
1070
           3
1071
-2147483643
1070
           1
1000
#$AUX@_ToolInfo Properties
1070
           8
1000
Insert^JCurve^JBezier@Curve Bezier
1000
$SPLINESEGS
1070
          18
1070
          20
1000
$SPLFRAME
1070
          18
1070
           0
1000
$SPLINETYPE
1070
          18
1070
           1
1000
$SHOWCONTRPTS
1070
          18
1070
           1
1000
$CURVESMOOTH
1070
          18
1070
           1
1002
}
  0
POLYLINE
  8
0
  6
CONTINUOUS
 62
          93
  5
F7
 66
           1
 10
0.0
 20
0.0
 30
0.0
 70
         128
1001
TCAD
1000
TCW_CUSTOM_DATA
1002
{
1000
#$AUX@_ToolInfo Properties
1070
           8
1000
Insert^JLine^JPolyline@Line Polyline
1002
}
  0
VERTEX
  8
0
  6
CONTINUOUS
 62
          93
  5
F8
 10
-2191.961539992005
 20
-1025.622756956893
 30
0.0
  0
VERTEX
  8
0
  6
CONTINUOUS
 62
          93
  5
F9
 10
-2169.571865147014
 20
-1025.622756956893
 30
0.0
  0
VERTEX
  8
0
  6
CONTINUOUS
 62
          93
  5
FA
 10
-2169.571865147014
 20
-869.222462631388
 30
0.0
  0
SEQEND
  8
0
  6
CONTINUOUS
 62
          93
  5
FB
  0
POLYLINE
  8
0
  6
CONTINUOUS
 62
          93
  5
FC
 66
           1
 10
0.0
 20
0.0
 30
0.0
 70
         128
1001
TCAD
1000
TCW_CUSTOM_DATA
1002
{
1000
#$AUX@_ToolInfo Properties
1070
           8
1000
Insert^JLine^JPolyline@Line Polyline
1002
}
  0
VERTEX
  8
0
  6
CONTINUOUS
 62
          93
  5
FD
 10
-2191.961539992005
 20
-1108.841306002146
 30
0.0
  0
VERTEX
  8
0
  6
CONTINUOUS
 62
          93
  5
FE
 10
-2169.571865147014
 20
-1108.841306002146
 30
0.0
  0
VERTEX
  8
0
  6
CONTINUOUS
 62
          93
  5
FF
 10
-2169.571865147014
 20
-1265.241600327651
 30
0.0
  0
SEQEND
  8
0
  6
CONTINUOUS
 62
          93
  5
100
  0
POLYLINE
  8
0
  6
CONTINUOUS
 62
          93
  5
101
 66
           1
 10
0.0
 20
0.0
 30
0.0
 70
         128
1001
TCAD
1000
TCW_CUSTOM_DATA
1002
{
1000
#$AUX@_ToolInfo Properties
1070
           8
1000
Insert^JLine^JPolyline@Line Polyline
1002
}
  0
VERTEX
  8
0
  6
CONTINUOUS
 62
          93
  5
102
 10
-2167.054735811032
 20
-707.975490673147
 30
0.0
  0
VERTEX
  8
0
  6
CONTINUOUS
 62
          93
  5
103
 10
-2169.571865147014
 20
-702.006951015208
 30
0.0
  0
VERTEX
  8
0
  6
CONTINUOUS
 62
          93
  5
104
 10
-2174.600860884806
 20
-708.07125427612
 30
0.0
  0
SEQEND
  8
0
  6
CONTINUOUS
 62
          93
  5
105
  0
LINE
  8
0
  6
CONTINUOUS
 62
          93
  5
106
 10
-1827.466952937712
 20
-703.665974292788
 30
0.0
 11
-2167.054735811032
 21
-707.975490673147
 31
0.0
  0
POLYLINE
  8
0
  6
CONTINUOUS
 62
          93
  5
107
 66
           1
 10
0.0
 20
0.0
 30
0.0
 70
         128
  0
VERTEX
  8
0
  6
CONTINUOUS
 62
          93
  5
108
 10
-2174.600860884806
 20
-708.07125427612
 30
0.0
  0
VERTEX
  8
0
  6
CONTINUOUS
 62
          93
  5
109
 10
-2244.234123226759
 20
-708.95493060317
 30
0.0
  0
VERTEX
  8
0
  6
CONTINUOUS
 62
          93
  5
10A
 10
-2244.234123226759
 20
-702.954447481267
 30
0.0
  0
VERTEX
  8
0
  6
CONTINUOUS
 62
          93
  5
10B
 10
-1827.466952938245
 20
-697.665491170892
 30
0.0
  0
SEQEND
  8
0
  6
CONTINUOUS
 62
          93
  5
10C
  0
LINE
  8
0
  5
10D
 10
-1966.94598825951
 20
-1046.204948145683
 30
38.73891577336
 11
-1974.945988259508
 21
-1046.204948145683
 31
38.73891577336
1001
ACAD
1000
TCW40_DEV_WIDTH
1002
{
1040
-3.0
1002
}
  0
LINE
  8
0
  5
10E
 10
-1974.945988259508
 20
-1052.732031479519
 30
38.73891577336
 11
-1987.743904925354
 21
-1052.73203147952
 31
38.73891577336
1001
ACAD
1000
TCW40_DEV_WIDTH
1002
{
1040
-3.0
1002
}
  0
LINE
  8
0
  5
10F
 10
-1987.743904925354
 20
-986.574009033235
 30
38.73891577336
 11
-1987.743904925354
 21
-1052.73203147952
 31
38.73891577336
1001
ACAD
1000
TCW40_DEV_WIDTH
1002
{
1040
-3.0
1002
}
  0
LINE
  8
0
  5
110
 10
-2030.413200417076
 20
-986.574009033235
 30
38.73891577336
 11
-1987.743904925354
 21
-986.574009033235
 31
38.73891577336
1001
ACAD
1000
TCW40_DEV_WIDTH
1002
{
1040
-3.0
1002
}
  0
LINE
  8
0
  5
111
 10
-1974.945988259508
 20
-1046.204948145683
 30
38.73891577336
 11
-1974.945988259508
 21
-1052.732031479519
 31
38.73891577336
1001
ACAD
1000
TCW40_DEV_WIDTH
1002
{
1040
-3.0
1002
}
  0
LINE
  8
0
  5
112
 10
-1987.743904925354
 20
-986.574009033235
 30
38.73891577336
 11
-2030.413200417075
 21
-986.574009033235
 31
38.73891577336
1001
ACAD
1000
TCW40_DEV_WIDTH
1002
{
1040
-3.0
1002
}
  0
LINE
  8
0
  5
113
 10
-1966.945988259508
 20
-1046.204948145683
 30
38.73891577336
 11
-1974.945988259508
 21
-1046.204948145683
 31
38.73891577336
1001
ACAD
1000
TCW40_DEV_WIDTH
1002
{
1040
-3.0
1002
}
  0
LINE
  8
0
  5
114
 10
-1974.945988259508
 20
-1046.204948145683
 30
38.73891577336
 11
-1974.945988259508
 21
-1052.732031479519
 31
38.73891577336
1001
ACAD
1000
TCW40_DEV_WIDTH
1002
{
1040
-3.0
1002
}
  0
LINE
  8
0
  5
115
 10
-1974.945988259508
 20
-1052.732031479519
 30
38.73891577336
 11
-1987.743904925354
 21
-1052.73203147952
 31
38.73891577336
1001
ACAD
1000
TCW40_DEV_WIDTH
1002
{
1040
-3.0
1002
}
  0
LINE
  8
0
  5
116
 10
-1987.743904925354
 20
-1052.73203147952
 30
38.73891577336
 11
-1987.743904925354
 21
-986.574009033235
 31
38.73891577336
1001
ACAD
1000
TCW40_DEV_WIDTH
1002
{
1040
-3.0
1002
}
  0
LINE
  8
0
  5
117
 10
-2030.413200417076
 20
-1067.232031479519
 30
-38.73891577336
 11
-2030.413200417076
 21
-986.574009033235
 31
38.73891577336
1001
ACAD
1000
TCW40_DEV_WIDTH
1002
{
1040
-3.0
1002
}
  0
LINE
  8
0
  6
CONTINUOUS
 62
           7
  5
118
 10
-1966.94598825951
 20
-1046.204948145683
 30
-38.73891577336
 11
-1966.94598825951
 21
-1067.232031479519
 31
-38.73891577336
1001
ACAD
1000
TCW40_DEV_WIDTH
1002
{
1040
-3.0
1002
}
  0
LINE
  8
0
  5
119
 10
-1966.94598825951
 20
-1088.259114813357
 30
38.73891577336
 11
-1974.945988259508
 21
-1088.259114813357
 31
38.73891577336
1001
ACAD
1000
TCW40_DEV_WIDTH
1002
{
1040
-3.0
1002
}
  0
LINE
  8
0
  5
11A
 10
-1974.945988259508
 20
-1081.73203147952
 30
38.73891577336
 11
-1987.743904925354
 21
-1081.732031479519
 31
38.73891577336
1001
ACAD
1000
TCW40_DEV_WIDTH
1002
{
1040
-3.0
1002
}
  0
LINE
  8
0
  5
11B
 10
-1987.743904925354
 20
-1147.890053925804
 30
38.73891577336
 11
-1987.743904925354
 21
-1081.732031479519
 31
38.73891577336
1001
ACAD
1000
TCW40_DEV_WIDTH
1002
{
1040
-3.0
1002
}
  0
LINE
  8
0
  5
11C
 10
-2030.413200417076
 20
-1147.890053925804
 30
38.73891577336
 11
-1987.743904925354
 21
-1147.890053925804
 31
38.73891577336
1001
ACAD
1000
TCW40_DEV_WIDTH
1002
{
1040
-3.0
1002
}
  0
LINE
  8
0
  5
11D
 10
-1974.945988259508
 20
-1088.259114813357
 30
38.73891577336
 11
-1974.945988259508
 21
-1081.73203147952
 31
38.73891577336
1001
ACAD
1000
TCW40_DEV_WIDTH
1002
{
1040
-3.0
1002
}
  0
LINE
  8
0
  5
11E
 10
-1987.743904925354
 20
-1147.890053925804
 30
38.73891577336
 11
-2030.413200417075
 21
-1147.890053925804
 31
38.73891577336
1001
ACAD
1000
TCW40_DEV_WIDTH
1002
{
1040
-3.0
1002
}
  0
LINE
  8
0
  5
11F
 10
-1966.945988259508
 20
-1088.259114813357
 30
38.73891577336
 11
-1974.945988259508
 21
-1088.259114813357
 31
38.73891577336
1001
ACAD
1000
TCW40_DEV_WIDTH
1002
{
1040
-3.0
1002
}
  0
LINE
  8
0
  5
120
 10
-1974.945988259508
 20
-1088.259114813357
 30
38.73891577336
 11
-1974.945988259508
 21
-1081.73203147952
 31
38.73891577336
1001
ACAD
1000
TCW40_DEV_WIDTH
1002
{
1040
-3.0
1002
}
  0
LINE
  8
0
  5
121
 10
-1974.945988259508
 20
-1081.73203147952
 30
38.73891577336
 11
-1987.743904925354
 21
-1081.732031479519
 31
38.73891577336
1001
ACAD
1000
TCW40_DEV_WIDTH
1002
{
1040
-3.0
1002
}
  0
LINE
  8
0
  5
122
 10
-1987.743904925354
 20
-1081.732031479519
 30
38.73891577336
 11
-1987.743904925354
 21
-1147.890053925804
 31
38.73891577336
1001
ACAD
1000
TCW40_DEV_WIDTH
1002
{
1040
-3.0
1002
}
  0
LINE
  8
0
  5
123
 10
-2030.413200417076
 20
-1067.23203147952
 30
-38.73891577336
 11
-2030.413200417076
 21
-1147.890053925804
 31
38.73891577336
1001
ACAD
1000
TCW40_DEV_WIDTH
1002
{
1040
-3.0
1002
}
  0
LINE
  8
0
  6
CONTINUOUS
 62
           7
  5
124
 10
-1966.94598825951
 20
-1088.259114813357
 30
-38.73891577336
 11
-1966.94598825951
 21
-1067.23203147952
 31
-38.73891577336
1001
ACAD
1000
TCW40_DEV_WIDTH
1002
{
1040
-3.0
1002
}
  0
POLYLINE
  8
0
  6
CONTINUOUS
 62
           5
  5
125
 66
           1
 10
0.0
 20
0.0
 30
0.0
 70
         128
  0
VERTEX
  8
0
  6
CONTINUOUS
 62
           5
  5
126
 10
-1662.748240191725
 20
-997.529654226303
 30
0.0
  0
VERTEX
  8
0
  6
CONTINUOUS
 62
           5
  5
127
 10
-1686.929259422623
 20
-993.834361029067
 30
0.0
  0
VERTEX
  8
0
  6
CONTINUOUS
 62
           5
  5
128
 10
-1711.609757727008
 20
-990.649396635651
 30
0.0
  0
VERTEX
  8
0
  6
CONTINUOUS
 62
           5
  5
129
 10
-1736.755116635937
 20
-987.938968121711
 30
0.0
  0
VERTEX
  8
0
  6
CONTINUOUS
 62
           5
  5
12A
 10
-1762.330717680471
 20
-985.667282562907
 30
0.0
  0
VERTEX
  8
0
  6
CONTINUOUS
 62
           5
  5
12B
 10
-1788.301942391666
 20
-983.798547034896
 30
0.0
  0
VERTEX
  8
0
  6
CONTINUOUS
 62
           5
  5
12C
 10
-1814.634172300581
 20
-982.296968613336
 30
0.0
  0
VERTEX
  8
0
  6
CONTINUOUS
 62
           5
  5
12D
 10
-1841.292788938275
 20
-981.126754373885
 30
0.0
  0
VERTEX
  8
0
  6
CONTINUOUS
 62
           5
  5
12E
 10
-1868.243173835806
 20
-980.252111392203
 30
0.0
  0
VERTEX
  8
0
  6
CONTINUOUS
 62
           5
  5
12F
 10
-1895.450708524232
 20
-979.637246743946
 30
0.0
  0
VERTEX
  8
0
  6
CONTINUOUS
 62
           5
  5
130
 10
-1922.880774534611
 20
-979.246367504772
 30
0.0
  0
VERTEX
  8
0
  6
CONTINUOUS
 62
           5
  5
131
 10
-1950.498753398002
 20
-979.043680750341
 30
0.0
  0
VERTEX
  8
0
  6
CONTINUOUS
 62
           5
  5
132
 10
-1978.270026645463
 20
-978.993393556309
 30
0.0
  0
VERTEX
  8
0
  6
CONTINUOUS
 62
           5
  5
133
 10
-2006.159975808053
 20
-979.059712998335
 30
0.0
  0
VERTEX
  8
0
  6
CONTINUOUS
 62
           5
  5
134
 10
-2034.133982416829
 20
-979.206846152078
 30
0.0
  0
VERTEX
  8
0
  6
CONTINUOUS
 62
           5
  5
135
 10
-2062.15742800285
 20
-979.399000093195
 30
0.0
  0
VERTEX
  8
0
  6
CONTINUOUS
 62
           5
  5
136
 10
-2090.195694097175
 20
-979.600381897344
 30
0.0
  0
VERTEX
  8
0
  6
CONTINUOUS
 62
           5
  5
137
 10
-2118.214162230862
 20
-979.775198640184
 30
0.0
  0
VERTEX
  8
0
  6
CONTINUOUS
 62
           5
  5
138
 10
-2146.178213934968
 20
-979.887657397372
 30
0.0
  0
VERTEX
  8
0
  6
CONTINUOUS
 62
           5
  5
139
 10
-2174.053230740553
 20
-979.901965244567
 30
0.0
  0
VERTEX
  8
0
  6
CONTINUOUS
 62
           5
  5
13A
 10
-2181.841446992293
 20
-979.868390283775
 30
0.0
  0
SEQEND
  8
0
  6
CONTINUOUS
 62
           5
  5
13B
  0
LINE
  8
0
  6
CONTINUOUS
 62
           5
  5
13C
 10
-2181.841446992293
 20
-979.868390283775
 30
0.0
 11
-2181.841446992293
 21
-973.734509128557
 31
0.0
1001
TCAD
1000
TCW_CUSTOM_DATA
1002
{
1000
#$AUX@_ToolInfo Properties
1070
           8
1000
Insert^JLine^JSingle@Line Single
1002
}
  0
POLYLINE
  8
0
  6
CONTINUOUS
 62
           5
  5
13D
 66
           1
 10
0.0
 20
0.0
 30
0.0
 70
         128
  0
VERTEX
  8
0
  6
CONTINUOUS
 62
           5
  5
13E
 10
-1662.748240191725
 20
-1136.934408732736
 30
0.0
  0
VERTEX
  8
0
  6
CONTINUOUS
 62
           5
  5
13F
 10
-1686.929259422623
 20
-1140.629701929972
 30
0.0
  0
VERTEX
  8
0
  6
CONTINUOUS
 62
           5
  5
140
 10
-1711.609757727008
 20
-1143.814666323388
 30
0.0
  0
VERTEX
  8
0
  6
CONTINUOUS
 62
           5
  5
141
 10
-1736.755116635937
 20
-1146.525094837328
 30
0.0
  0
VERTEX
  8
0
  6
CONTINUOUS
 62
           5
  5
142
 10
-1762.330717680471
 20
-1148.796780396132
 30
0.0
  0
VERTEX
  8
0
  6
CONTINUOUS
 62
           5
  5
143
 10
-1788.301942391666
 20
-1150.665515924143
 30
0.0
  0
VERTEX
  8
0
  6
CONTINUOUS
 62
           5
  5
144
 10
-1814.634172300581
 20
-1152.167094345703
 30
0.0
  0
VERTEX
  8
0
  6
CONTINUOUS
 62
           5
  5
145
 10
-1841.292788938275
 20
-1153.337308585153
 30
0.0
  0
VERTEX
  8
0
  6
CONTINUOUS
 62
           5
  5
146
 10
-1868.243173835806
 20
-1154.211951566836
 30
0.0
  0
VERTEX
  8
0
  6
CONTINUOUS
 62
           5
  5
147
 10
-1895.450708524232
 20
-1154.826816215093
 30
0.0
  0
VERTEX
  8
0
  6
CONTINUOUS
 62
           5
  5
148
 10
-1922.880774534611
 20
-1155.217695454267
 30
0.0
  0
VERTEX
  8
0
  6
CONTINUOUS
 62
           5
  5
149
 10
-1950.498753398002
 20
-1155.420382208698
 30
0.0
  0
VERTEX
  8
0
  6
CONTINUOUS
 62
           5
  5
14A
 10
-1978.270026645463
 20
-1155.47066940273
 30
0.0
  0
VERTEX
  8
0
  6
CONTINUOUS
 62
           5
  5
14B
 10
-2006.159975808053
 20
-1155.404349960704
 30
0.0
  0
VERTEX
  8
0
  6
CONTINUOUS
 62
           5
  5
14C
 10
-2034.133982416829
 20
-1155.257216806961
 30
0.0
  0
VERTEX
  8
0
  6
CONTINUOUS
 62
           5
  5
14D
 10
-2062.15742800285
 20
-1155.065062865844
 30
0.0
  0
VERTEX
  8
0
  6
CONTINUOUS
 62
           5
  5
14E
 10
-2090.195694097175
 20
-1154.863681061695
 30
0.0
  0
VERTEX
  8
0
  6
CONTINUOUS
 62
           5
  5
14F
 10
-2118.214162230862
 20
-1154.688864318855
 30
0.0
  0
VERTEX
  8
0
  6
CONTINUOUS
 62
           5
  5
150
 10
-2146.178213934968
 20
-1154.576405561667
 30
0.0
  0
VERTEX
  8
0
  6
CONTINUOUS
 62
           5
  5
151
 10
-2174.053230740553
 20
-1154.562097714472
 30
0.0
  0
VERTEX
  8
0
  6
CONTINUOUS
 62
           5
  5
152
 10
-2181.841446992293
 20
-1154.595672675264
 30
0.0
  0
SEQEND
  8
0
  6
CONTINUOUS
 62
           5
  5
153
  0
LINE
  8
0
  6
CONTINUOUS
 62
           5
  5
154
 10
-2181.841446992293
 20
-1154.595672675264
 30
0.0
 11
-2181.841446992293
 21
-1160.729553830482
 31
0.0
1001
TCAD
1000
TCW_CUSTOM_DATA
1002
{
1000
#$AUX@_ToolInfo Properties
1070
           8
1000
Insert^JLine^JSingle@Line Single
1002
}
  0
LINE
  8
0
  6
CONTINUOUS
 62
           5
  5
155
 10
-1953.84840210805
 20
-762.017783547234
 30
0.0
 11
-1953.84840210805
 21
-768.1014803324
 31
0.0
1001
TCAD
1000
TCW_CUSTOM_DATA
1002
{
1000
#$AUX@_ToolInfo Properties
1070
           8
1000
Insert^JLine^JSingle@Line Single
1002
}
  0
POLYLINE
  8
0
  6
CONTINUOUS
 62
          30
  5
156
 66
           1
 10
0.0
 20
0.0
 30
0.0
 70
         128
  0
VERTEX
  8
0
  6
CONTINUOUS
 62
          30
  5
157
 10
-1456.895312264257
 20
-697.704023310206
 30
0.0
  0
VERTEX
  8
0
  6
CONTINUOUS
 62
          30
  5
158
 10
-1459.803328943567
 20
-696.945750283349
 30
0.0
  0
VERTEX
  8
0
  6
CONTINUOUS
 62
          30
  5
159
 10
-1467.181837112026
 20
-695.092769481844
 30
0.0
  0
VERTEX
  8
0
  6
CONTINUOUS
 62
          30
  5
15A
 10
-1474.614974914075
 20
-693.264544760561
 30
0.0
  0
VERTEX
  8
0
  6
CONTINUOUS
 62
          30
  5
15B
 10
-1482.067367423068
 20
-691.438316442321
 30
0.0
  0
VERTEX
  8
0
  6
CONTINUOUS
 62
          30
  5
15C
 10
-1489.503639712361
 20
-689.591324849948
 30
0.0
  0
VERTEX
  8
0
  6
CONTINUOUS
 62
          30
  5
15D
 10
-1496.888416855312
 20
-687.700810306261
 30
0.0
  0
VERTEX
  8
0
  6
CONTINUOUS
 62
          30
  5
15E
 10
-1504.186323925275
 20
-685.744013134082
 30
0.0
  0
VERTEX
  8
0
  6
CONTINUOUS
 62
          30
  5
15F
 10
-1511.361985995607
 20
-683.698173656235
 30
0.0
  0
VERTEX
  8
0
  6
CONTINUOUS
 62
          30
  5
160
 10
-1518.380028139663
 20
-681.540532195538
 30
0.0
  0
VERTEX
  8
0
  6
CONTINUOUS
 62
          30
  5
161
 10
-1525.205075430799
 20
-679.248329074815
 30
0.0
  0
SEQEND
  8
0
  6
CONTINUOUS
 62
          30
  5
162
  0
LINE
  8
0
  6
CONTINUOUS
 62
          30
  5
163
 10
-1525.205075430799
 20
-679.248329074815
 30
0.0
 11
-1559.112341430879
 21
-658.505060476415
 31
0.0
1001
TCAD
1000
TCW_CUSTOM_DATA
1002
{
1000
#$AUX@_ToolInfo Properties
1070
           8
1000
Insert^JLine^JPolyline@Line Polyline
1002
}
  0
INSERT
  8
0
  6
CONTINUOUS
 62
          30
  5
17E
  2
*E4
 10
0.0
 20
0.0
 30
0.0
1001
TCAD
1000
TCW_CUSTOM_DATA
1002
{
1000
#$AUX@_ToolInfo Properties
1070
           8
1000
Insert^JCurve^JBezier@Curve Bezier
1002
}
1000
TC25ExternalObject
1002
{
1000
TCW30CURVE
1000

1070
           0
1071
    32511
1040
1.0
1040
0.0
1000
Continuous
1000
0
1071
        4
1071
      162
1010
-1559.112341430879
1020
-658.505060476415
1030
0.0
1071
     6274
1010
-1597.092501187207
1020
-640.119693443351
1030
0.0
1071
     6274
1010
-1684.914659813681
1020
-654.131204633616
1030
0.0
1071
      162
1010
-1726.707822081717
1020
-661.295746736396
1030
0.0
1070
           3
1071
-2147483643
1070
           1
1000
#$AUX@_ToolInfo Properties
1070
           8
1000
Insert^JCurve^JBezier@Curve Bezier
1000
$SPLINESEGS
1070
          18
1070
          20
1000
$SPLFRAME
1070
          18
1070
           0
1000
$SPLINETYPE
1070
          18
1070
           1
1000
$SHOWCONTRPTS
1070
          18
1070
           1
1000
$CURVESMOOTH
1070
          18
1070
           1
1002
}
  0
POLYLINE
  8
0
  6
CONTINUOUS
 62
          30
  5
17F
 66
           1
 10
0.0
 20
0.0
 30
0.0
 70
         128
1001
TCAD
1000
TCW_CUSTOM_DATA
1002
{
1000
#$AUX@_ToolInfo Properties
1070
           8
1000
Insert^JLine^JPolyline@Line Polyline
1002
}
  0
VERTEX
  8
0
  6
CONTINUOUS
 62
          30
  5
180
 10
-1726.707822081717
 20
-661.295746736396
 30
0.0
  0
VERTEX
  8
0
  6
CONTINUOUS
 62
          30
  5
181
 10
-1862.535599456401
 20
-686.670166686471
 30
0.0
  0
VERTEX
  8
0
  6
CONTINUOUS
 62
          30
  5
182
 10
-1966.945988259515
 20
-689.478840752336
 30
0.0
  0
VERTEX
  8
0
  6
CONTINUOUS
 62
          30
  5
183
 10
-1966.945988259515
 20
-699.318535442012
 30
0.0
  0
SEQEND
  8
0
  6
CONTINUOUS
 62
          30
  5
184
  0
POLYLINE
  8
0
  6
CONTINUOUS
 62
          30
  5
185
 66
           1
 10
0.0
 20
0.0
 30
0.0
 70
         128
  0
VERTEX
  8
0
  6
CONTINUOUS
 62
          30
  5
186
 10
-1720.271195094666
 20
-696.834179558737
 30
0.0
  0
VERTEX
  8
0
  6
CONTINUOUS
 62
          30
  5
187
 10
-1729.050868919834
 20
-696.810887194445
 30
0.0
  0
VERTEX
  8
0
  6
CONTINUOUS
 62
          30
  5
188
 10
-1749.430391657707
 20
-696.863500973016
 30
0.0
  0
VERTEX
  8
0
  6
CONTINUOUS
 62
          30
  5
189
 10
-1769.475239993599
 20
-696.999457768131
 30
0.0
  0
VERTEX
  8
0
  6
CONTINUOUS
 62
          30
  5
18A
 10
-1789.171935362342
 20
-697.194568071605
 30
0.0
  0
VERTEX
  8
0
  6
CONTINUOUS
 62
          30
  5
18B
 10
-1808.506999198768
 20
-697.424642375252
 30
0.0
  0
VERTEX
  8
0
  6
CONTINUOUS
 62
          30
  5
18C
 10
-1827.466952937712
 20
-697.665491170885
 30
0.0
  0
SEQEND
  8
0
  6
CONTINUOUS
 62
          30
  5
18D
  0
POLYLINE
  8
0
  6
CONTINUOUS
 62
          30
  5
18E
 66
           1
 10
0.0
 20
0.0
 30
0.0
 70
         128
1001
TCAD
1000
TCW_CUSTOM_DATA
1002
{
1000
#$AUX@_ToolInfo Properties
1070
           8
1000
Insert^JLine^JPolyline@Line Polyline
1002
}
  0
VERTEX
  8
0
  6
CONTINUOUS
 62
          30
  5
18F
 10
-1456.895312264257
 20
-697.704023310206
 30
0.0
  0
VERTEX
  8
0
  6
CONTINUOUS
 62
          30
  5
190
 10
-1479.963223491492
 20
-709.461917825782
 30
0.0
  0
VERTEX
  8
0
  6
CONTINUOUS
 62
          30
  5
191
 10
-1480.60881569923
 20
-715.38357982332
 30
0.0
  0
VERTEX
  8
0
  6
CONTINUOUS
 62
          30
  5
192
 10
-1492.295009381519
 20
-723.80527531645
 30
0.0
  0
VERTEX
  8
0
  6
CONTINUOUS
 62
          30
  5
193
 10
-1522.379131279194
 20
-720.610511715433
 30
0.0
  0
VERTEX
  8
0
  6
CONTINUOUS
 62
          30
  5
194
 10
-1529.769195282576
 20
-710.357445137334
 30
0.0
  0
VERTEX
  8
0
  6
CONTINUOUS
 62
          30
  5
195
 10
-1529.234151976982
 20
-704.40648999325
 30
0.0
  0
SEQEND
  8
0
  6
CONTINUOUS
 62
          30
  5
196
  0
POLYLINE
  8
0
  6
CONTINUOUS
 62
          30
  5
197
 66
           1
 10
0.0
 20
0.0
 30
0.0
 70
         128
1001
TCAD
1000
TCW_REFPOINT
1002
{
1010
-1720.271195094666
1020
-696.834179558738
1030
0.0
1002
}
1000
TCW_CUSTOM_DATA
1002
{
1000
#$AUX@_ToolInfo Properties
1070
           8
1000
Insert^JLine^JPolyline@Line Polyline
1002
}
  0
VERTEX
  8
0
  6
CONTINUOUS
 62
          30
  5
198
 10
-1670.789058979393
 20
-697.318617549037
 30
0.0
  0
VERTEX
  8
0
  6
CONTINUOUS
 62
          30
  5
199
 10
-1670.848364540796
 20
-703.338305119137
 30
0.0
  0
VERTEX
  8
0
  6
CONTINUOUS
 62
          30
  5
19A
 10
-1683.227525281228
 20
-712.602040606761
 30
0.0
  0
VERTEX
  8
0
  6
CONTINUOUS
 62
          30
  5
19B
 10
-1711.969261688405
 20
-712.346739968229
 30
0.0
  0
VERTEX
  8
0
  6
CONTINUOUS
 62
          30
  5
19C
 10
-1720.262177655274
 20
-702.80913203985
 30
0.0
  0
VERTEX
  8
0
  6
CONTINUOUS
 62
          30
  5
19D
 10
-1720.271195094666
 20
-696.834179558738
 30
0.0
  0
SEQEND
  8
0
  6
CONTINUOUS
 62
          30
  5
19E
  0
POLYLINE
  8
0
  6
CONTINUOUS
 62
          30
  5
19F
 66
           1
 10
0.0
 20
0.0
 30
0.0
 70
         128
  0
VERTEX
  8
0
  6
CONTINUOUS
 62
          30
  5
1A0
 10
-1529.234151976982
 20
-704.40648999325
 30
0.0
  0
VERTEX
  8
0
  6
CONTINUOUS
 62
          30
  5
1A1
 10
-1532.798779442375
 20
-704.079067782472
 30
0.0
  0
VERTEX
  8
0
  6
CONTINUOUS
 62
          30
  5
1A2
 10
-1555.583836365563
 20
-702.293066543779
 30
0.0
  0
VERTEX
  8
0
  6
CONTINUOUS
 62
          30
  5
1A3
 10
-1578.155525973273
 20
-700.808113895303
 30
0.0
  0
VERTEX
  8
0
  6
CONTINUOUS
 62
          30
  5
1A4
 10
-1600.500369700338
 20
-699.600020328859
 30
0.0
  0
VERTEX
  8
0
  6
CONTINUOUS
 62
          30
  5
1A5
 10
-1622.604888981591
 20
-698.64459633626
 30
0.0
  0
VERTEX
  8
0
  6
CONTINUOUS
 62
          30
  5
1A6
 10
-1644.455605251866
 20
-697.917652409321
 30
0.0
  0
VERTEX
  8
0
  6
CONTINUOUS
 62
          30
  5
1A7
 10
-1666.039039945994
 20
-697.394999039856
 30
0.0
  0
VERTEX
  8
0
  6
CONTINUOUS
 62
          30
  5
1A8
 10
-1670.789058979393
 20
-697.318617549037
 30
0.0
  0
SEQEND
  8
0
  6
CONTINUOUS
 62
          30
  5
1A9
  0
LINE
  8
0
  6
CONTINUOUS
 62
          30
  5
1AA
 10
-1942.768599448142
 20
-699.128719117765
 30
0.0
 11
-1942.674600324207
 21
-705.128009349979
 31
0.0
1001
TCAD
1000
TCW_CUSTOM_DATA
1002
{
1000
#$AUX@_ToolInfo Properties
1070
           8
1000
Insert^JLine^JPolyline@Line Polyline
1002
}
  0
POLYLINE
  8
0
  6
CONTINUOUS
 62
          30
  5
1AB
 66
           1
 10
0.0
 20
0.0
 30
0.0
 70
         128
1001
TCAD
1000
TCW_CUSTOM_DATA
1002
{
1000
#$AUX@_ToolInfo Properties
1070
           8
1000
Insert^JLine^JPolyline@Line Polyline
1002
}
  0
VERTEX
  8
0
  6
CONTINUOUS
 62
          30
  5
1AC
 10
-1942.674600324207
 20
-705.128009349979
 30
0.0
  0
VERTEX
  8
0
  6
CONTINUOUS
 62
          30
  5
1AD
 10
-1952.437671706544
 20
-733.948940443805
 30
0.0
  0
VERTEX
  8
0
  6
CONTINUOUS
 62
          30
  5
1AE
 10
-1962.972835656326
 20
-734.175493134669
 30
0.0
  0
SEQEND
  8
0
  6
CONTINUOUS
 62
          30
  5
1AF
  0
LINE
  8
0
  6
CONTINUOUS
 62
          30
  5
1B0
 10
-1942.768599448142
 20
-699.128719117765
 30
0.0
 11
-1827.466952938245
 21
-697.665491170892
 31
0.0
  0
POLYLINE
  8
0
  6
CONTINUOUS
 62
          30
  5
1B1
 66
           1
 10
0.0
 20
0.0
 30
0.0
 70
         128
1001
TCAD
1000
TCW_CUSTOM_DATA
1002
{
1000
#$AUX@_ToolInfo Properties
1070
           8
1000
Insert^JLine^JPolyline@Line Polyline
1002
}
  0
VERTEX
  8
0
  6
CONTINUOUS
 62
          30
  5
1B2
 10
-1966.945988259515
 20
-699.318535442012
 30
0.0
  0
VERTEX
  8
0
  6
CONTINUOUS
 62
          30
  5
1B3
 10
-1966.945988259515
 20
-720.816192836335
 30
0.0
  0
VERTEX
  8
0
  6
CONTINUOUS
 62
          30
  5
1B4
 10
-1962.701054152855
 20
-734.169648628477
 30
0.0
  0
SEQEND
  8
0
  6
CONTINUOUS
 62
          30
  5
1B5
  0
POLYLINE
  8
0
  6
CONTINUOUS
 62
          30
  5
1B6
 66
           1
 10
0.0
 20
0.0
 30
0.0
 70
         128
  0
VERTEX
  8
0
  6
CONTINUOUS
 62
          30
  5
1B7
 10
-1392.362523927586
 20
-725.471708067604
 30
0.0
  0
VERTEX
  8
0
  6
CONTINUOUS
 62
          30
  5
1B8
 10
-1396.805360968059
 20
-721.844271689878
 30
0.0
  0
VERTEX
  8
0
  6
CONTINUOUS
 62
          30
  5
1B9
 10
-1401.691951835205
 20
-718.491947841337
 30
0.0
  0
VERTEX
  8
0
  6
CONTINUOUS
 62
          30
  5
1BA
 10
-1406.986921602381
 20
-715.391976844803
 30
0.0
  0
VERTEX
  8
0
  6
CONTINUOUS
 62
          30
  5
1BB
 10
-1412.654895342943
 20
-712.521599023097
 30
0.0
  0
VERTEX
  8
0
  6
CONTINUOUS
 62
          30
  5
1BC
 10
-1418.660498130246
 20
-709.85805469904
 30
0.0
  0
VERTEX
  8
0
  6
CONTINUOUS
 62
          30
  5
1BD
 10
-1424.968355037646
 20
-707.378584195454
 30
0.0
  0
VERTEX
  8
0
  6
CONTINUOUS
 62
          30
  5
1BE
 10
-1431.543091138499
 20
-705.060427835161
 30
0.0
  0
VERTEX
  8
0
  6
CONTINUOUS
 62
          30
  5
1BF
 10
-1438.349331506163
 20
-702.880825940983
 30
0.0
  0
VERTEX
  8
0
  6
CONTINUOUS
 62
          30
  5
1C0
 10
-1445.351701213991
 20
-700.81701883574
 30
0.0
  0
VERTEX
  8
0
  6
CONTINUOUS
 62
          30
  5
1C1
 10
-1452.51482533534
 20
-698.846246842255
 30
0.0
  0
VERTEX
  8
0
  6
CONTINUOUS
 62
          30
  5
1C2
 10
-1456.895312264257
 20
-697.704023310206
 30
0.0
  0
SEQEND
  8
0
  6
CONTINUOUS
 62
          30
  5
1C3
  0
POLYLINE
  8
0
  6
CONTINUOUS
 62
          30
  5
1C4
 66
           1
 10
0.0
 20
0.0
 30
0.0
 70
         128
  0
VERTEX
  8
0
  6
CONTINUOUS
 62
          30
  5
1C5
 10
-1797.502876200424
 20
-763.166082995174
 30
0.0
  0
VERTEX
  8
0
  6
CONTINUOUS
 62
          30
  5
1C6
 10
-1794.236032914091
 20
-762.908816817157
 30
0.0
  0
VERTEX
  8
0
  6
CONTINUOUS
 62
          30
  5
1C7
 10
-1783.147906812938
 20
-761.932366870857
 30
0.0
  0
SEQEND
  8
0
  6
CONTINUOUS
 62
          30
  5
1C8
  0
POLYLINE
  8
0
  6
CONTINUOUS
 62
          30
  5
1C9
 66
           1
 10
0.0
 20
0.0
 30
0.0
 70
         128
1001
TCAD
1000
TCW_CUSTOM_DATA
1002
{
1000
#$AUX@_ToolInfo Properties
1070
           8
1000
Insert^JLine^JPolyline@Line Polyline
1002
}
  0
VERTEX
  8
0
  6
CONTINUOUS
 62
          30
  5
1CA
 10
-1783.147906821034
 20
-761.932366875143
 30
0.0
  0
VERTEX
  8
0
  6
CONTINUOUS
 62
          30
  5
1CB
 10
-1779.844842674785
 20
-746.076161625741
 30
0.0
  0
VERTEX
  8
0
  6
CONTINUOUS
 62
          30
  5
1CC
 10
-1529.809365118965
 20
-746.321950220462
 30
0.0
  0
SEQEND
  8
0
  6
CONTINUOUS
 62
          30
  5
1CD
  0
INSERT
  8
0
  6
CONTINUOUS
 62
          30
  5
1E8
  2
*E5
 10
0.0
 20
0.0
 30
0.0
1001
TCAD
1000
TCW_CUSTOM_DATA
1002
{
1000
#$AUX@_ToolInfo Properties
1070
           8
1000
Insert^JCurve^JBezier@Curve Bezier
1002
}
1000
TC25ExternalObject
1002
{
1000
TCW30CURVE
1000

1070
           0
1071
    32511
1040
1.0
1040
0.0
1000
Continuous
1000
0
1071
        4
1071
      162
1010
-1529.809365118965
1020
-746.321950220462
1030
0.0
1071
     6274
1010
-1483.389102754749
1020
-746.396580866207
1030
0.0
1071
     6274
1010
-1432.961595853906
1020
-744.278631091124
1030
0.0
1071
      162
1010
-1392.362523927586
1020
-725.471708067604
1030
0.0
1070
           3
1071
-2147483643
1070
           1
1000
#$AUX@_ToolInfo Properties
1070
           8
1000
Insert^JCurve^JBezier@Curve Bezier
1000
$SPLINESEGS
1070
          18
1070
          20
1000
$SPLFRAME
1070
          18
1070
           0
1000
$SPLINETYPE
1070
          18
1070
           1
1000
$SHOWCONTRPTS
1070
          18
1070
           1
1000
$CURVESMOOTH
1070
          18
1070
           1
1002
}
  0
LINE
  8
0
  6
CONTINUOUS
 62
          30
  5
1E9
 10
-1456.895312264257
 20
-697.704023310206
 30
0.0
 11
-1479.963223491492
 21
-709.461917825782
 31
0.0
  0
LINE
  8
0
  6
CONTINUOUS
 62
          30
  5
1EA
 10
-1479.963223491492
 20
-709.461917825782
 30
0.0
 11
-1480.608815699229
 21
-715.38357982332
 31
0.0
  0
LINE
  8
0
  6
CONTINUOUS
 62
          30
  5
1EB
 10
-1480.608815699229
 20
-715.38357982332
 30
0.0
 11
-1492.295009381519
 21
-723.80527531645
 31
0.0
  0
LINE
  8
0
  6
CONTINUOUS
 62
          30
  5
1EC
 10
-1492.295009381519
 20
-723.80527531645
 30
0.0
 11
-1522.379131279194
 21
-720.610511715433
 31
0.0
  0
LINE
  8
0
  6
CONTINUOUS
 62
          30
  5
1ED
 10
-1522.379131279194
 20
-720.610511715433
 30
0.0
 11
-1529.769195282576
 21
-710.357445137334
 31
0.0
  0
LINE
  8
0
  6
CONTINUOUS
 62
          30
  5
1EE
 10
-1670.848364540796
 20
-703.338305119137
 30
0.0
 11
-1683.227525281228
 21
-712.602040606761
 31
0.0
  0
LINE
  8
0
  6
CONTINUOUS
 62
          30
  5
1EF
 10
-1683.227525281228
 20
-712.602040606761
 30
0.0
 11
-1711.969261688406
 21
-712.346739968229
 31
0.0
  0
LINE
  8
0
  6
CONTINUOUS
 62
          30
  5
1F0
 10
-1711.969261688406
 20
-712.346739968229
 30
0.0
 11
-1720.262177655274
 21
-702.80913203985
 31
0.0
  0
POLYLINE
  8
0
  6
CONTINUOUS
 62
          30
  5
1F1
 66
           1
 10
0.0
 20
0.0
 30
0.0
 70
         128
  0
VERTEX
  8
0
  6
CONTINUOUS
 62
          30
  5
1F2
 10
-1529.769195282576
 20
-710.357445137334
 30
0.0
  0
VERTEX
  8
0
  6
CONTINUOUS
 62
          30
  5
1F3
 10
-1532.798779442376
 20
-710.079172136803
 30
0.0
  0
VERTEX
  8
0
  6
CONTINUOUS
 62
          30
  5
1F4
 10
-1555.583836365562
 20
-708.293202663375
 30
0.0
  0
VERTEX
  8
0
  6
CONTINUOUS
 62
          30
  5
1F5
 10
-1578.155525973273
 20
-706.808283954213
 30
0.0
  0
VERTEX
  8
0
  6
CONTINUOUS
 62
          30
  5
1F6
 10
-1600.500369700338
 20
-705.600225776448
 30
0.0
  0
VERTEX
  8
0
  6
CONTINUOUS
 62
          30
  5
1F7
 10
-1622.604888981591
 20
-704.644837897211
 30
0.0
  0
VERTEX
  8
0
  6
CONTINUOUS
 62
          30
  5
1F8
 10
-1644.455605251866
 20
-703.917930083635
 30
0.0
  0
VERTEX
  8
0
  6
CONTINUOUS
 62
          30
  5
1F9
 10
-1666.039039945995
 20
-703.395312102849
 30
0.0
  0
VERTEX
  8
0
  6
CONTINUOUS
 62
          30
  5
1FA
 10
-1670.848164376357
 20
-703.317987844377
 30
0.0
  0
SEQEND
  8
0
  6
CONTINUOUS
 62
          30
  5
1FB
  0
LINE
  8
0
  6
CONTINUOUS
 62
          30
  5
1FC
 10
-1797.502876200424
 20
-763.166082995174
 30
0.0
 11
-1798.054391781883
 21
-757.209515230308
 31
0.0
1001
TCAD
1000
TCW_CUSTOM_DATA
1002
{
1000
#$AUX@_ToolInfo Properties
1070
           8
1000
Insert^JLine^JSingle@Line Single
1002
}
  0
POLYLINE
  8
0
  6
CONTINUOUS
 62
          30
  5
1FD
 66
           1
 10
0.0
 20
0.0
 30
0.0
 70
         128
  0
VERTEX
  8
0
  6
CONTINUOUS
 62
          30
  5
1FE
 10
-1812.439134133924
 20
-758.278791242544
 30
0.0
  0
VERTEX
  8
0
  6
CONTINUOUS
 62
          30
  5
1FF
 10
-1805.278593006661
 20
-757.778426094842
 30
0.0
  0
VERTEX
  8
0
  6
CONTINUOUS
 62
          30
  5
200
 10
-1798.054391781883
 20
-757.209515230308
 30
0.0
  0
SEQEND
  8
0
  6
CONTINUOUS
 62
          30
  5
201
  0
LINE
  8
0
  6
CONTINUOUS
 62
          30
  5
202
 10
-1812.439134133924
 20
-758.278791242544
 30
0.0
 11
-1800.526293210609
 21
-703.33015280315
 31
0.0
1001
TCAD
1000
TCW_CUSTOM_DATA
1002
{
1000
#$AUX@_ToolInfo Properties
1070
           8
1000
Insert^JLine^JPolyline@Line Polyline
1002
}
  0
POLYLINE
  8
0
  6
CONTINUOUS
 62
          30
  5
203
 66
           1
 10
0.0
 20
0.0
 30
0.0
 70
         128
  0
VERTEX
  8
0
  6
CONTINUOUS
 62
          30
  5
204
 10
-1720.239983175408
 20
-702.834657711155
 30
0.0
  0
VERTEX
  8
0
  6
CONTINUOUS
 62
          30
  5
205
 10
-1729.050868919833
 20
-702.81129482855
 30
0.0
  0
VERTEX
  8
0
  6
CONTINUOUS
 62
          30
  5
206
 10
-1749.430391657707
 20
-702.863933850241
 30
0.0
  0
VERTEX
  8
0
  6
CONTINUOUS
 62
          30
  5
207
 10
-1769.475239993599
 20
-702.999911540378
 30
0.0
  0
VERTEX
  8
0
  6
CONTINUOUS
 62
          30
  5
208
 10
-1789.171935362341
 20
-703.195037666095
 30
0.0
  0
VERTEX
  8
0
  6
CONTINUOUS
 62
          30
  5
209
 10
-1800.526293210609
 20
-703.33015280315
 30
0.0
  0
SEQEND
  8
0
  6
CONTINUOUS
 62
          30
  5
20A
  0
LINE
  8
0
  6
CONTINUOUS
 62
          30
  5
20B
 10
-1953.84840210805
 20
-762.017783547234
 30
0.0
 11
-1953.84840210805
 21
-768.1014803324
 31
0.0
  0
LINE
  8
0
  6
CONTINUOUS
 62
          30
  5
20C
 10
-1953.84840210805
 20
-762.017783547234
 30
0.0
 11
-1953.84840210805
 21
-768.1014803324
 31
0.0
1001
TCAD
1000
TCW_CUSTOM_DATA
1002
{
1000
#$AUX@_ToolInfo Properties
1070
           8
1000
Insert^JLine^JSingle@Line Single
1002
}
  0
POLYLINE
  8
0
  6
CONTINUOUS
 62
          30
  5
20D
 66
           1
 10
0.0
 20
0.0
 30
0.0
 70
         128
1001
TCAD
1000
TCW_CUSTOM_DATA
1002
{
1000
#$AUX@_ToolInfo Properties
1070
           8
1000
Insert^JLine^JPolyline@Line Polyline
1002
}
  0
VERTEX
  8
0
  6
CONTINUOUS
 62
          30
  5
20E
 10
-1922.757705282276
 20
-761.992959923779
 30
0.0
  0
VERTEX
  8
0
  6
CONTINUOUS
 62
          30
  5
20F
 10
-1929.645799858886
 20
-755.673994961036
 30
0.0
  0
VERTEX
  8
0
  6
CONTINUOUS
 62
          30
  5
210
 10
-1932.82767809844
 20
-717.684701958686
 30
0.0
  0
VERTEX
  8
0
  6
CONTINUOUS
 62
          30
  5
211
 10
-1927.000600238664
 20
-704.929099484781
 30
0.0
  0
SEQEND
  8
0
  6
CONTINUOUS
 62
          30
  5
212
  0
POLYLINE
  8
0
  6
CONTINUOUS
 62
          30
  5
213
 66
           1
 10
0.0
 20
0.0
 30
0.0
 70
         128
1001
TCAD
1000
TCW_CUSTOM_DATA
1002
{
1000
#$AUX@_ToolInfo Properties
1070
           8
1000
Insert^JLine^JPolyline@Line Polyline
1002
}
  0
VERTEX
  8
0
  6
CONTINUOUS
 62
          30
  5
214
 10
-1942.674600324207
 20
-705.128009349979
 30
0.0
  0
VERTEX
  8
0
  6
CONTINUOUS
 62
          30
  5
215
 10
-1952.437671706544
 20
-733.948940443805
 30
0.0
  0
VERTEX
  8
0
  6
CONTINUOUS
 62
          30
  5
216
 10
-1962.972835656326
 20
-734.175493134669
 30
0.0
  0
SEQEND
  8
0
  6
CONTINUOUS
 62
          30
  5
217
  0
LINE
  8
0
  6
CONTINUOUS
 62
          30
  5
218
 10
-1942.674600324207
 20
-705.128009349979
 30
0.0
 11
-1927.036495178946
 21
-705.00767430394
 31
0.0
1001
TCAD
1000
TCW_CUSTOM_DATA
1002
{
1000
#$AUX@_ToolInfo Properties
1070
           8
1000
Insert^JLine^JSingle@Line Single
1002
}
  0
LINE
  8
0
  6
CONTINUOUS
 62
          30
  5
219
 10
-1962.701054152855
 20
-734.169648628477
 30
0.0
 11
-1953.84840210805
 21
-762.017783547234
 31
0.0
1001
TCAD
1000
TCW_CUSTOM_DATA
1002
{
1000
#$AUX@_ToolInfo Properties
1070
           8
1000
Insert^JLine^JPolyline@Line Polyline
1002
}
  0
LINE
  8
0
  6
CONTINUOUS
 62
          30
  5
21A
 10
-1940.14743490095
 20
-762.080048580923
 30
0.0
 11
-1940.055660173094
 21
-768.079812752495
 31
0.0
  0
LINE
  8
0
  6
CONTINUOUS
 62
          30
  5
21B
 10
-1940.14743490095
 20
-762.080048580923
 30
0.0
 11
-1935.972420247078
 21
-762.069320277329
 31
0.0
  0
LINE
  8
0
  6
CONTINUOUS
 62
          30
  5
21C
 10
-1935.972420247078
 20
-762.069320277329
 30
0.0
 11
-1925.104383371985
 21
-762.012694379687
 31
0.0
  0
LINE
  8
0
  6
CONTINUOUS
 62
          30
  5
21D
 10
-1925.104383371985
 20
-762.012694379687
 30
0.0
 11
-1922.757705282276
 21
-761.992959923779
 31
0.0
  0
LINE
  8
0
  6
CONTINUOUS
 62
          30
  5
21E
 10
-1953.84840210805
 20
-768.100704604837
 30
0.0
 11
-1946.856935927843
 21
-768.097289613578
 31
0.0
  0
LINE
  8
0
  6
CONTINUOUS
 62
          30
  5
21F
 10
-1946.856935927843
 20
-768.097289613578
 30
0.0
 11
-1940.055660173094
 21
-768.079812752495
 31
0.0
  0
POLYLINE
  8
0
  6
CONTINUOUS
 62
          93
  5
220
 66
           1
 10
0.0
 20
0.0
 30
0.0
 70
         129
1001
TCAD
1000
TCW_CUSTOM_DATA
1002
{
1000
#$AUX@_ToolInfo Properties
1070
           8
1000
Insert^JLine^JRectangle@Line Rectangle
1002
}
  0
VERTEX
  8
0
  6
CONTINUOUS
 62
          93
  5
221
 10
-1720.26668637497
 20
-1064.232031479521
 30
0.0
  0
VERTEX
  8
0
  6
CONTINUOUS
 62
          93
  5
222
 10
-1670.818711760095
 20
-1064.232031479521
 30
0.0
  0
VERTEX
  8
0
  6
CONTINUOUS
 62
          93
  5
223
 10
-1670.818711760095
 20
-1070.232031479521
 30
0.0
  0
VERTEX
  8
0
  6
CONTINUOUS
 62
          93
  5
224
 10
-1720.26668637497
 20
-1070.232031479521
 30
0.0
  0
SEQEND
  8
0
  6
CONTINUOUS
 62
          93
  5
225
  0
POLYLINE
  8
0
  6
CONTINUOUS
 62
          93
  5
226
 66
           1
 10
0.0
 20
0.0
 30
0.0
 70
         128
1001
TCAD
1000
TCW_CUSTOM_DATA
1002
{
1000
#$AUX@_ToolInfo Properties
1070
           8
1000
Insert^JLine^JRectangle@Line Rectangle
1002
}
  0
VERTEX
  8
0
  6
CONTINUOUS
 62
          93
  5
227
 10
-1396.876830803046
 20
-1070.232031479521
 30
0.0
  0
VERTEX
  8
0
  6
CONTINUOUS
 62
          93
  5
228
 10
-1529.501673629902
 20
-1070.232031479521
 30
0.0
  0
VERTEX
  8
0
  6
CONTINUOUS
 62
          93
  5
229
 10
-1529.501673629902
 20
-1064.232031479521
 30
0.0
  0
VERTEX
  8
0
  6
CONTINUOUS
 62
          93
  5
22A
 10
-1396.876830803042
 20
-1064.232031479521
 30
0.0
  0
SEQEND
  8
0
  6
CONTINUOUS
 62
          93
  5
22B
  0
POLYLINE
  8
0
  6
CONTINUOUS
 62
          93
  5
22C
 66
           1
 10
0.0
 20
0.0
 30
0.0
 70
         129
1001
TCAD
1000
TCW_CUSTOM_DATA
1002
{
1000
#$AUX@_ToolInfo Properties
1070
           8
1000
Insert^JLine^JRectangle@Line Rectangle
1002
}
  0
VERTEX
  8
0
  6
CONTINUOUS
 62
          93
  5
22D
 10
-1966.94598825951
 20
-1064.232031479521
 30
0.0
  0
VERTEX
  8
0
  6
CONTINUOUS
 62
          93
  5
22E
 10
-1942.768599448142
 20
-1064.232031479521
 30
0.0
  0
VERTEX
  8
0
  6
CONTINUOUS
 62
          93
  5
22F
 10
-1942.768599448142
 20
-1070.232031479521
 30
0.0
  0
VERTEX
  8
0
  6
CONTINUOUS
 62
          93
  5
230
 10
-1966.94598825951
 20
-1070.232031479521
 30
0.0
  0
SEQEND
  8
0
  6
CONTINUOUS
 62
          93
  5
231
  0
LINE
  8
0
  6
CONTINUOUS
 62
          93
  5
232
 10
-1689.059457196817
 20
-1147.038480454689
 30
0.0
 11
-1859.758461143709
 21
-1213.46104104854
 31
0.0
  0
INSERT
  8
0
  6
CONTINUOUS
 62
          93
  5
24D
  2
*E6
 10
0.0
 20
0.0
 30
0.0
1001
TCAD
1000
TCW_CUSTOM_DATA
1002
{
1000
#$AUX@_ToolInfo Properties
1070
           8
1000
Insert^JCurve^JBezier@Curve Bezier
1002
}
1000
TC25ExternalObject
1002
{
1000
TCW30CURVE
1000

1070
           0
1071
  3263537
1040
1.0
1040
0.0
1000
Continuous
1000
0
1071
        4
1071
      162
1010
-1662.748240191726
1020
-1143.068289887957
1030
0.0
1071
     6274
1010
-1822.213174888439
1020
-1169.484213714128
1030
0.0
1071
     6274
1010
-2017.284612413724
1020
-1159.492022329575
1030
0.0
1071
      162
1010
-2201.804594178674
1020
-1160.815614856833
1030
0.0
1070
           3
1071
-2147483643
1070
           1
1000
#$AUX@_ToolInfo Properties
1070
           8
1000
Insert^JCurve^JBezier@Curve Bezier
1000
$SPLINESEGS
1070
          18
1070
          20
1000
$SPLFRAME
1070
          18
1070
           0
1000
$SPLINETYPE
1070
          18
1070
           1
1000
$SHOWCONTRPTS
1070
          18
1070
           1
1000
$CURVESMOOTH
1070
          18
1070
           1
1002
}
  0
LINE
  8
0
  6
CONTINUOUS
 62
          93
  5
24E
 10
-1689.059457196817
 20
-987.425582504352
 30
0.0
 11
-1689.903023116936
 21
-993.450603320288
 31
0.0
1001
TCAD
1000
TCW_CUSTOM_DATA
1002
{
1000
#$AUX@_ToolInfo Properties
1070
           8
1000
Insert^JLine^JSingle@Line Single
1002
}
  0
LINE
  8
0
  6
CONTINUOUS
 62
           1
  5
24F
 10
-1953.84840210805
 20
-979.037615330397
 30
0.0
 11
-1953.84840210805
 21
-972.903734175178
 31
0.0
1001
TCAD
1000
TCW_CUSTOM_DATA
1002
{
1000
#$AUX@_ToolInfo Properties
1070
           8
1000
Insert^JLine^JSingle@Line Single
1002
}
  0
LINE
  8
0
  6
CONTINUOUS
 62
           1
  5
250
 10
-1932.120711320143
 20
-979.178556141476
 30
0.0
 11
-1932.120711320143
 21
-973.044674986257
 31
0.0
1001
TCAD
1000
TCW_CUSTOM_DATA
1002
{
1000
#$AUX@_ToolInfo Properties
1070
           8
1000
Insert^JLine^JSingle@Line Single
1002
}
  0
LINE
  8
0
  6
CONTINUOUS
 62
           1
  5
251
 10
-1882.643627981862
 20
-979.926674697013
 30
0.0
 11
-1882.643627981862
 21
-973.792793541795
 31
0.0
1001
TCAD
1000
TCW_CUSTOM_DATA
1002
{
1000
#$AUX@_ToolInfo Properties
1070
           8
1000
Insert^JLine^JSingle@Line Single
1002
}
  0
LINE
  8
0
  6
CONTINUOUS
 62
           1
  5
252
 10
-1860.154044646279
 20
-980.514634547269
 30
0.0
 11
-1860.154044646279
 21
-974.380753392051
 31
0.0
1001
TCAD
1000
TCW_CUSTOM_DATA
1002
{
1000
#$AUX@_ToolInfo Properties
1070
           8
1000
Insert^JLine^JSingle@Line Single
1002
}
  0
LINE
  8
0
  6
CONTINUOUS
 62
           1
  5
253
 10
-1804.326961307363
 20
-982.88473067023
 30
0.0
 11
-1804.326961307363
 21
-976.750849515012
 31
0.0
1001
TCAD
1000
TCW_CUSTOM_DATA
1002
{
1000
#$AUX@_ToolInfo Properties
1070
           8
1000
Insert^JLine^JSingle@Line Single
1002
}
  0
LINE
  8
0
  6
CONTINUOUS
 62
           1
  5
254
 10
-1781.874667727906
 20
-984.261015657227
 30
0.0
 11
-1781.874667727906
 21
-978.127134502009
 31
0.0
1001
TCAD
1000
TCW_CUSTOM_DATA
1002
{
1000
#$AUX@_ToolInfo Properties
1070
           8
1000
Insert^JLine^JSingle@Line Single
1002
}
  0
POLYLINE
  8
0
  6
CONTINUOUS
 62
           1
  5
255
 66
           1
 10
0.0
 20
0.0
 30
0.0
 70
         128
  0
VERTEX
  8
0
  6
CONTINUOUS
 62
           1
  5
256
 10
-1932.120711320143
 20
-973.044674986257
 30
0.0
  0
VERTEX
  8
0
  6
CONTINUOUS
 62
           1
  5
257
 10
-1950.498753398002
 20
-972.909799595122
 30
0.0
  0
VERTEX
  8
0
  6
CONTINUOUS
 62
           1
  5
258
 10
-1953.84840210805
 20
-972.903734175178
 30
0.0
  0
SEQEND
  8
0
  6
CONTINUOUS
 62
           1
  5
259
  0
POLYLINE
  8
0
  6
CONTINUOUS
 62
           1
  5
25A
 66
           1
 10
0.0
 20
0.0
 30
0.0
 70
         128
  0
VERTEX
  8
0
  6
CONTINUOUS
 62
           1
  5
25B
 10
-1781.874667727906
 20
-978.127134502009
 30
0.0
  0
VERTEX
  8
0
  6
CONTINUOUS
 62
           1
  5
25C
 10
-1788.301942391666
 20
-977.664665879677
 30
0.0
  0
VERTEX
  8
0
  6
CONTINUOUS
 62
           1
  5
25D
 10
-1804.326961307363
 20
-976.750849515012
 30
0.0
  0
SEQEND
  8
0
  6
CONTINUOUS
 62
           1
  5
25E
  0
POLYLINE
  8
0
  6
CONTINUOUS
 62
           1
  5
25F
 66
           1
 10
0.0
 20
0.0
 30
0.0
 70
         128
  0
VERTEX
  8
0
  6
CONTINUOUS
 62
           1
  5
260
 10
-1860.154044646279
 20
-974.380753392051
 30
0.0
  0
VERTEX
  8
0
  6
CONTINUOUS
 62
           1
  5
261
 10
-1868.243173835807
 20
-974.118230236985
 30
0.0
  0
VERTEX
  8
0
  6
CONTINUOUS
 62
           1
  5
262
 10
-1882.643627981862
 20
-973.792793541795
 30
0.0
  0
SEQEND
  8
0
  6
CONTINUOUS
 62
           1
  5
263
  0
POLYLINE
  8
0
  6
CONTINUOUS
 62
           1
  5
264
 66
           1
 10
0.0
 20
0.0
 30
0.0
 70
         128
  0
VERTEX
  8
0
  6
CONTINUOUS
 62
           1
  5
265
 10
-1882.643627981862
 20
-979.926674697013
 30
0.0
  0
VERTEX
  8
0
  6
CONTINUOUS
 62
           1
  5
266
 10
-1895.450708524232
 20
-979.637246743945
 30
0.0
  0
VERTEX
  8
0
  6
CONTINUOUS
 62
           1
  5
267
 10
-1922.880774534611
 20
-979.246367504772
 30
0.0
  0
VERTEX
  8
0
  6
CONTINUOUS
 62
           1
  5
268
 10
-1932.120711320143
 20
-979.178556141476
 30
0.0
  0
SEQEND
  8
0
  6
CONTINUOUS
 62
           1
  5
269
  0
POLYLINE
  8
0
  6
CONTINUOUS
 62
           1
  5
26A
 66
           1
 10
0.0
 20
0.0
 30
0.0
 70
         128
  0
VERTEX
  8
0
  6
CONTINUOUS
 62
           1
  5
26B
 10
-1804.326961307363
 20
-982.88473067023
 30
0.0
  0
VERTEX
  8
0
  6
CONTINUOUS
 62
           1
  5
26C
 10
-1814.634172300581
 20
-982.296968613335
 30
0.0
  0
VERTEX
  8
0
  6
CONTINUOUS
 62
           1
  5
26D
 10
-1841.292788938275
 20
-981.126754373885
 30
0.0
  0
VERTEX
  8
0
  6
CONTINUOUS
 62
           1
  5
26E
 10
-1860.154044646279
 20
-980.514634547269
 30
0.0
  0
SEQEND
  8
0
  6
CONTINUOUS
 62
           1
  5
26F
  0
POLYLINE
  8
0
  6
CONTINUOUS
 62
           1
  5
270
 66
           1
 10
0.0
 20
0.0
 30
0.0
 70
         128
1001
TCAD
1000
TCW_CUSTOM_DATA
1002
{
1000
#$AUX@_ToolInfo Properties
1070
           8
1000
Insert^JLine^JPolyline@Line Polyline
1002
}
  0
VERTEX
  8
0
  6
CONTINUOUS
 62
           1
  5
271
 10
-1953.84840210805
 20
-979.037615330397
 30
0.0
  0
VERTEX
  8
0
  6
CONTINUOUS
 62
           1
  5
272
 10
-1953.84840210805
 20
-1064.23203147952
 30
0.0
  0
VERTEX
  8
0
  6
CONTINUOUS
 62
           1
  5
273
 10
-1940.14743490095
 20
-1064.232031479521
 30
0.0
  0
VERTEX
  8
0
  6
CONTINUOUS
 62
           1
  5
274
 10
-1940.14743490095
 20
-1067.232031479521
 30
0.0
  0
SEQEND
  8
0
  6
CONTINUOUS
 62
           1
  5
275
  0
POLYLINE
  8
0
  6
CONTINUOUS
 62
           1
  5
276
 66
           1
 10
0.0
 20
0.0
 30
0.0
 70
         128
1001
TCAD
1000
TCW_CUSTOM_DATA
1002
{
1000
#$AUX@_ToolInfo Properties
1070
           8
1000
Insert^JLine^JPolyline@Line Polyline
1002
}
  0
VERTEX
  8
0
  6
CONTINUOUS
 62
           1
  5
277
 10
-1781.874667727906
 20
-984.261015657227
 30
0.0
  0
VERTEX
  8
0
  6
CONTINUOUS
 62
           1
  5
278
 10
-1781.874667727906
 20
-1064.232031479521
 30
0.0
  0
VERTEX
  8
0
  6
CONTINUOUS
 62
           1
  5
279
 10
-1797.778633991153
 20
-1064.232031479521
 30
0.0
  0
VERTEX
  8
0
  6
CONTINUOUS
 62
           1
  5
27A
 10
-1797.778633991153
 20
-1067.232031479521
 30
0.0
  0
SEQEND
  8
0
  6
CONTINUOUS
 62
           1
  5
27B
  0
LINE
  8
0
  6
CONTINUOUS
 62
           1
  5
27C
 10
-1953.84840210805
 20
-1155.426447628645
 30
0.0
 11
-1953.84840210805
 21
-1161.560328783863
 31
0.0
1001
TCAD
1000
TCW_CUSTOM_DATA
1002
{
1000
#$AUX@_ToolInfo Properties
1070
           8
1000
Insert^JLine^JSingle@Line Single
1002
}
  0
LINE
  8
0
  6
CONTINUOUS
 62
           1
  5
27D
 10
-1932.120711320143
 20
-1155.285506817566
 30
0.0
 11
-1932.120711320143
 21
-1161.419387972784
 31
0.0
1001
TCAD
1000
TCW_CUSTOM_DATA
1002
{
1000
#$AUX@_ToolInfo Properties
1070
           8
1000
Insert^JLine^JSingle@Line Single
1002
}
  0
LINE
  8
0
  6
CONTINUOUS
 62
           1
  5
27E
 10
-1882.643627981862
 20
-1154.537388262028
 30
0.0
 11
-1882.643627981862
 21
-1160.671269417246
 31
0.0
1001
TCAD
1000
TCW_CUSTOM_DATA
1002
{
1000
#$AUX@_ToolInfo Properties
1070
           8
1000
Insert^JLine^JSingle@Line Single
1002
}
  0
LINE
  8
0
  6
CONTINUOUS
 62
           1
  5
27F
 10
-1860.154044646279
 20
-1153.949428411773
 30
0.0
 11
-1860.154044646279
 21
-1160.083309566991
 31
0.0
1001
TCAD
1000
TCW_CUSTOM_DATA
1002
{
1000
#$AUX@_ToolInfo Properties
1070
           8
1000
Insert^JLine^JSingle@Line Single
1002
}
  0
LINE
  8
0
  6
CONTINUOUS
 62
           1
  5
280
 10
-1804.326961307363
 20
-1151.579332288811
 30
0.0
 11
-1804.326961307363
 21
-1157.713213444029
 31
0.0
1001
TCAD
1000
TCW_CUSTOM_DATA
1002
{
1000
#$AUX@_ToolInfo Properties
1070
           8
1000
Insert^JLine^JSingle@Line Single
1002
}
  0
LINE
  8
0
  6
CONTINUOUS
 62
           1
  5
281
 10
-1781.874667727906
 20
-1150.203047301814
 30
0.0
 11
-1781.874667727906
 21
-1156.336928457032
 31
0.0
1001
TCAD
1000
TCW_CUSTOM_DATA
1002
{
1000
#$AUX@_ToolInfo Properties
1070
           8
1000
Insert^JLine^JSingle@Line Single
1002
}
  0
POLYLINE
  8
0
  6
CONTINUOUS
 62
           1
  5
282
 66
           1
 10
0.0
 20
0.0
 30
0.0
 70
         128
  0
VERTEX
  8
0
  6
CONTINUOUS
 62
           1
  5
283
 10
-1932.120711320143
 20
-1161.419387972784
 30
0.0
  0
VERTEX
  8
0
  6
CONTINUOUS
 62
           1
  5
284
 10
-1950.498753398002
 20
-1161.554263363919
 30
0.0
  0
VERTEX
  8
0
  6
CONTINUOUS
 62
           1
  5
285
 10
-1953.84840210805
 20
-1161.560328783863
 30
0.0
  0
SEQEND
  8
0
  6
CONTINUOUS
 62
           1
  5
286
  0
POLYLINE
  8
0
  6
CONTINUOUS
 62
           1
  5
287
 66
           1
 10
0.0
 20
0.0
 30
0.0
 70
         128
  0
VERTEX
  8
0
  6
CONTINUOUS
 62
           1
  5
288
 10
-1781.874667727906
 20
-1156.336928457032
 30
0.0
  0
VERTEX
  8
0
  6
CONTINUOUS
 62
           1
  5
289
 10
-1788.301942391666
 20
-1156.799397079364
 30
0.0
  0
VERTEX
  8
0
  6
CONTINUOUS
 62
           1
  5
28A
 10
-1804.326961307363
 20
-1157.713213444029
 30
0.0
  0
SEQEND
  8
0
  6
CONTINUOUS
 62
           1
  5
28B
  0
POLYLINE
  8
0
  6
CONTINUOUS
 62
           1
  5
28C
 66
           1
 10
0.0
 20
0.0
 30
0.0
 70
         128
  0
VERTEX
  8
0
  6
CONTINUOUS
 62
           1
  5
28D
 10
-1860.154044646279
 20
-1160.083309566991
 30
0.0
  0
VERTEX
  8
0
  6
CONTINUOUS
 62
           1
  5
28E
 10
-1868.243173835807
 20
-1160.345832722056
 30
0.0
  0
VERTEX
  8
0
  6
CONTINUOUS
 62
           1
  5
28F
 10
-1882.643627981862
 20
-1160.671269417246
 30
0.0
  0
SEQEND
  8
0
  6
CONTINUOUS
 62
           1
  5
290
  0
POLYLINE
  8
0
  6
CONTINUOUS
 62
           1
  5
291
 66
           1
 10
0.0
 20
0.0
 30
0.0
 70
         128
  0
VERTEX
  8
0
  6
CONTINUOUS
 62
           1
  5
292
 10
-1882.643627981862
 20
-1154.537388262028
 30
0.0
  0
VERTEX
  8
0
  6
CONTINUOUS
 62
           1
  5
293
 10
-1895.450708524232
 20
-1154.826816215096
 30
0.0
  0
VERTEX
  8
0
  6
CONTINUOUS
 62
           1
  5
294
 10
-1922.880774534611
 20
-1155.21769545427
 30
0.0
  0
VERTEX
  8
0
  6
CONTINUOUS
 62
           1
  5
295
 10
-1932.120711320143
 20
-1155.285506817566
 30
0.0
  0
SEQEND
  8
0
  6
CONTINUOUS
 62
           1
  5
296
  0
POLYLINE
  8
0
  6
CONTINUOUS
 62
           1
  5
297
 66
           1
 10
0.0
 20
0.0
 30
0.0
 70
         128
  0
VERTEX
  8
0
  6
CONTINUOUS
 62
           1
  5
298
 10
-1804.326961307363
 20
-1151.579332288811
 30
0.0
  0
VERTEX
  8
0
  6
CONTINUOUS
 62
           1
  5
299
 10
-1814.634172300581
 20
-1152.167094345706
 30
0.0
  0
VERTEX
  8
0
  6
CONTINUOUS
 62
           1
  5
29A
 10
-1841.292788938275
 20
-1153.337308585156
 30
0.0
  0
VERTEX
  8
0
  6
CONTINUOUS
 62
           1
  5
29B
 10
-1860.154044646279
 20
-1153.949428411773
 30
0.0
  0
SEQEND
  8
0
  6
CONTINUOUS
 62
           1
  5
29C
  0
POLYLINE
  8
0
  6
CONTINUOUS
 62
           1
  5
29D
 66
           1
 10
0.0
 20
0.0
 30
0.0
 70
         128
1001
TCAD
1000
TCW_CUSTOM_DATA
1002
{
1000
#$AUX@_ToolInfo Properties
1070
           8
1000
Insert^JLine^JPolyline@Line Polyline
1002
}
  0
VERTEX
  8
0
  6
CONTINUOUS
 62
           1
  5
29E
 10
-1953.84840210805
 20
-1155.426447628645
 30
0.0
  0
VERTEX
  8
0
  6
CONTINUOUS
 62
           1
  5
29F
 10
-1953.84840210805
 20
-1070.232031479521
 30
0.0
  0
VERTEX
  8
0
  6
CONTINUOUS
 62
           1
  5
2A0
 10
-1940.14743490095
 20
-1070.232031479521
 30
0.0
  0
VERTEX
  8
0
  6
CONTINUOUS
 62
           1
  5
2A1
 10
-1940.14743490095
 20
-1067.232031479521
 30
0.0
  0
SEQEND
  8
0
  6
CONTINUOUS
 62
           1
  5
2A2
  0
POLYLINE
  8
0
  6
CONTINUOUS
 62
           1
  5
2A3
 66
           1
 10
0.0
 20
0.0
 30
0.0
 70
         128
1001
TCAD
1000
TCW_CUSTOM_DATA
1002
{
1000
#$AUX@_ToolInfo Properties
1070
           8
1000
Insert^JLine^JPolyline@Line Polyline
1002
}
  0
VERTEX
  8
0
  6
CONTINUOUS
 62
           1
  5
2A4
 10
-1781.874667727906
 20
-1150.203047301814
 30
0.0
  0
VERTEX
  8
0
  6
CONTINUOUS
 62
           1
  5
2A5
 10
-1781.874667727906
 20
-1070.232031479521
 30
0.0
  0
VERTEX
  8
0
  6
CONTINUOUS
 62
           1
  5
2A6
 10
-1797.778633991153
 20
-1070.23203147952
 30
0.0
  0
VERTEX
  8
0
  6
CONTINUOUS
 62
           1
  5
2A7
 10
-1797.778633991153
 20
-1067.232031479521
 30
0.0
  0
SEQEND
  8
0
  6
CONTINUOUS
 62
           1
  5
2A8
  0
INSERT
  8
0
  6
CONTINUOUS
 62
           5
  5
2C3
  2
*E7
 10
0.0
 20
0.0
 30
0.0
1001
TCAD
1000
TCW_REFPOINT
1002
{
1010
-2132.883742632461
1020
-707.541281278242
1030
0.0
1002
}
1000
TCW_CUSTOM_DATA
1002
{
1000
#$AUX@_ToolInfo Properties
1070
           8
1000
Insert^JCurve^JBezier@Curve Bezier
1002
}
1000
TC25ExternalObject
1002
{
1000
TCW30CURVE
1000

1070
           0
1071
 16711680
1040
1.0
1040
0.0
1000
Continuous
1000
0
1070
          18
1010
-2132.883742632461
1020
-707.541281278242
1030
0.0
1071
        4
1071
      162
1010
-2132.883742632461
1020
-707.541281278242
1030
0.0
1071
     6274
1010
-2150.198052699805
1020
-708.063695799812
1030
0.0
1071
     6274
1010
-2166.019749846049
1020
-711.347444264127
1030
0.0
1071
      162
1010
-2181.841446992293
1020
-714.631192728442
1030
0.0
1070
           3
1071
-2147483643
1070
           1
1000
#$AUX@_ToolInfo Properties
1070
           8
1000
Insert^JCurve^JBezier@Curve Bezier
1000
$SPLINESEGS
1070
          18
1070
          20
1000
$SPLFRAME
1070
          18
1070
           0
1000
$SPLINETYPE
1070
          18
1070
           1
1000
$SHOWCONTRPTS
1070
          18
1070
           1
1000
$CURVESMOOTH
1070
          18
1070
           1
1002
}
  0
LINE
  8
0
  6
CONTINUOUS
 62
           5
  5
2C4
 10
-2181.841446992293
 20
-714.631192728442
 30
0.0
 11
-2181.841446992293
 21
-757.564926314405
 31
0.0
1001
TCAD
1000
TCW_CUSTOM_DATA
1002
{
1000
#$AUX@_ToolInfo Properties
1070
           8
1000
Insert^JLine^JPolyline@Line Polyline
1002
}
  0
INSERT
  8
0
  6
CONTINUOUS
 62
           5
  5
2DF
  2
*E8
 10
0.0
 20
0.0
 30
0.0
1001
TCAD
1000
TCW_CUSTOM_DATA
1002
{
1000
#$AUX@_ToolInfo Properties
1070
           8
1000
Insert^JCurve^JBezier@Curve Bezier
1002
}
1000
TC25ExternalObject
1002
{
1000
TCW30CURVE
1000

1070
           0
1071
 16711680
1040
1.0
1040
0.0
1000
Continuous
1000
0
1071
        4
1071
      162
1010
-2132.698541274726
1020
-764.957715297738
1030
0.0
1071
     6274
1010
-2153.22558007062
1020
-763.014176807038
1030
0.0
1071
     6274
1010
-2166.111792936325
1020
-760.785414069464
1030
0.0
1071
      162
1010
-2181.841446992293
1020
-757.564926314405
1030
0.0
1070
           3
1071
-2147483643
1070
           1
1000
#$AUX@_ToolInfo Properties
1070
           8
1000
Insert^JCurve^JBezier@Curve Bezier
1000
$SPLINESEGS
1070
          18
1070
          20
1000
$SPLFRAME
1070
          18
1070
           0
1000
$SPLINETYPE
1070
          18
1070
           1
1000
$SHOWCONTRPTS
1070
          18
1070
           1
1000
$CURVESMOOTH
1070
          18
1070
           1
1002
}
  0
POLYLINE
  8
0
  6
CONTINUOUS
 62
           5
  5
2E0
 66
           1
 10
0.0
 20
0.0
 30
0.0
 70
         128
1001
TCAD
1000
TCW_CUSTOM_DATA
1002
{
1000
#$AUX@_ToolInfo Properties
1070
           8
1000
Insert^JLine^JPolyline@Line Polyline
1002
}
  0
VERTEX
  8
0
  6
CONTINUOUS
 62
           5
  5
2E1
 10
-2132.698541274726
 20
-764.957715297738
 30
0.0
  0
VERTEX
  8
0
  6
CONTINUOUS
 62
           5
  5
2E2
 10
-2132.400018687062
 20
-770.629644463372
 30
0.0
  0
VERTEX
  8
0
  6
CONTINUOUS
 62
           5
  5
2E3
 10
-2017.304156814235
 20
-787.200075205064
 30
0.0
  0
VERTEX
  8
0
  6
CONTINUOUS
 62
           5
  5
2E4
 10
-2001.693740147436
 20
-768.017783547234
 30
0.0
  0
SEQEND
  8
0
  6
CONTINUOUS
 62
           5
  5
2E5
  0
POLYLINE
  8
0
  6
CONTINUOUS
 62
           5
  5
2E6
 66
           1
 10
0.0
 20
0.0
 30
0.0
 70
         128
1001
TCAD
1000
TCW_CUSTOM_DATA
1002
{
1000
#$AUX@_ToolInfo Properties
1070
           8
1000
Insert^JLine^JSingle@Line Single
1002
}
  0
VERTEX
  8
0
  6
CONTINUOUS
 62
           5
  5
2E7
 10
-1779.844842674785
 20
-746.076161625741
 30
0.0
  0
VERTEX
  8
0
  6
CONTINUOUS
 62
           5
  5
2E8
 10
-1779.311448479657
 20
-739.575075202469
 30
0.0
  0
VERTEX
  8
0
  6
CONTINUOUS
 62
           5
  5
2E9
 10
-1662.748240191726
 20
-703.4749950239
 30
0.0
  0
SEQEND
  8
0
  6
CONTINUOUS
 62
           5
  5
2EA
  0
LINE
  8
0
  6
CONTINUOUS
 62
           5
  5
2EB
 10
-1953.84840210805
 20
-762.017783547234
 30
0.0
 11
-1953.84840210805
 21
-768.1014803324
 31
0.0
1001
TCAD
1000
TCW_CUSTOM_DATA
1002
{
1000
#$AUX@_ToolInfo Properties
1070
           8
1000
Insert^JLine^JSingle@Line Single
1002
}
  0
LINE
  8
0
  6
CONTINUOUS
 62
           5
  5
2EC
 10
-1662.748240191726
 20
-703.4749950239
 30
0.0
 11
-1662.312778524958
 21
-697.485232272649
 31
0.0
1001
TCAD
1000
TCW_CUSTOM_DATA
1002
{
1000
#$AUX@_ToolInfo Properties
1070
           8
1000
Insert^JLine^JPolyline@Line Polyline
1002
}
  0
LINE
  8
0
  6
CONTINUOUS
 62
           5
  5
2ED
 10
-1689.481240156876
 20
-697.033438986852
 30
0.0
 11
-1689.699916659374
 21
-703.031846813669
 31
0.0
1001
TCAD
1000
TCW_CUSTOM_DATA
1002
{
1000
#$AUX@_ToolInfo Properties
1070
           8
1000
Insert^JLine^JPolyline@Line Polyline
1002
}
  0
POLYLINE
  8
0
  6
CONTINUOUS
 62
           5
  5
2EE
 66
           1
 10
0.0
 20
0.0
 30
0.0
 70
         128
1001
TCAD
1000
TCW_CUSTOM_DATA
1002
{
1000
#$AUX@_ToolInfo Properties
1070
           8
1000
Insert^JLine^JPolyline@Line Polyline
1002
}
  0
VERTEX
  8
0
  6
CONTINUOUS
 62
           5
  5
2EF
 10
-2132.883742632461
 20
-707.541281278242
 30
0.0
  0
VERTEX
  8
0
  6
CONTINUOUS
 62
           5
  5
2F0
 10
-2126.592561906076
 20
-720.957777320556
 30
0.0
  0
VERTEX
  8
0
  6
CONTINUOUS
 62
           5
  5
2F1
 10
-2111.511311904568
 20
-720.957777320556
 30
0.0
  0
VERTEX
  8
0
  6
CONTINUOUS
 62
           5
  5
2F2
 10
-2104.236587838859
 20
-707.178301105903
 30
0.0
  0
SEQEND
  8
0
  6
CONTINUOUS
 62
           5
  5
2F3
  0
POLYLINE
  8
0
  6
CONTINUOUS
 62
           5
  5
2F4
 66
           1
 10
0.0
 20
0.0
 30
0.0
 70
         128
1001
TCAD
1000
TCW_REFPOINT
1002
{
1010
-1814.634172300581
1020
-703.502956769002
1030
0.0
1002
}
1000
TCW_CUSTOM_DATA
1002
{
1000
#$AUX@_ToolInfo Properties
1070
           8
1000
Insert^JLine^JPolyline@Line Polyline
1002
}
  0
VERTEX
  8
0
  6
CONTINUOUS
 62
           5
  5
2F5
 10
-1814.634172300581
 20
-703.502956769002
 30
0.0
  0
VERTEX
  8
0
  6
CONTINUOUS
 62
           5
  5
2F6
 10
-1814.634172300581
 20
-697.502476017808
 30
0.0
  0
VERTEX
  8
0
  6
CONTINUOUS
 62
           5
  5
2F7
 10
-1845.969621435505
 20
-697.900298066165
 30
0.0
  0
VERTEX
  8
0
  6
CONTINUOUS
 62
           5
  5
2F8
 10
-1845.969621435505
 20
-703.907541090325
 30
0.0
  0
SEQEND
  8
0
  6
CONTINUOUS
 62
           5
  5
2F9
  0
LINE
  8
0
  6
CONTINUOUS
 62
           5
  5
2FA
 10
-1932.120711320143
 20
-762.04925165979
 30
0.0
 11
-1932.120711320143
 21
-768.04925165979
 31
0.0
1001
TCAD
1000
TCW_CUSTOM_DATA
1002
{
1000
#$AUX@_ToolInfo Properties
1070
           8
1000
Insert^JLine^JSingle@Line Single
1002
}
  0
LINE
  8
0
  6
CONTINUOUS
 62
           5
  5
2FB
 10
-1882.643627981862
 20
-761.399433113272
 30
0.0
 11
-1882.643627981862
 21
-767.399433113272
 31
0.0
1001
TCAD
1000
TCW_CUSTOM_DATA
1002
{
1000
#$AUX@_ToolInfo Properties
1070
           8
1000
Insert^JLine^JSingle@Line Single
1002
}
  0
LINE
  8
0
  6
CONTINUOUS
 62
           5
  5
2FC
 10
-1860.154044646279
 20
-760.740205285451
 30
0.0
 11
-1860.154044646279
 21
-766.740205285451
 31
0.0
1001
TCAD
1000
TCW_CUSTOM_DATA
1002
{
1000
#$AUX@_ToolInfo Properties
1070
           8
1000
Insert^JLine^JSingle@Line Single
1002
}
  0
LINE
  8
0
  6
CONTINUOUS
 62
           5
  5
2FD
 10
-1781.874667727906
 20
-755.820242042472
 30
0.0
 11
-1779.844842674785
 21
-746.076161625741
 31
0.0
1001
TCAD
1000
TCW_CUSTOM_DATA
1002
{
1000
#$AUX@_ToolInfo Properties
1070
           8
1000
Insert^JLine^JSingle@Line Single
1002
}
  0
LINE
  8
0
  6
CONTINUOUS
 62
           5
  5
2FE
 10
-1804.326961307363
 20
-757.703484437499
 30
0.0
 11
-1804.326961307363
 21
-763.623604201678
 31
0.0
1001
TCAD
1000
TCW_CUSTOM_DATA
1002
{
1000
#$AUX@_ToolInfo Properties
1070
           8
1000
Insert^JLine^JSingle@Line Single
1002
}
  0
POLYLINE
  8
0
  6
CONTINUOUS
 62
           5
  5
2FF
 66
           1
 10
0.0
 20
0.0
 30
0.0
 70
         128
  0
VERTEX
  8
0
  6
CONTINUOUS
 62
           5
  5
300
 10
-1804.326961307363
 20
-757.703484437499
 30
0.0
  0
VERTEX
  8
0
  6
CONTINUOUS
 62
           5
  5
301
 10
-1794.236032914091
 20
-756.908816817157
 30
0.0
  0
VERTEX
  8
0
  6
CONTINUOUS
 62
           5
  5
302
 10
-1781.874667727906
 20
-755.820242042472
 30
0.0
  0
SEQEND
  8
0
  6
CONTINUOUS
 62
           5
  5
303
  0
POLYLINE
  8
0
  6
CONTINUOUS
 62
           5
  5
304
 66
           1
 10
0.0
 20
0.0
 30
0.0
 70
         128
  0
VERTEX
  8
0
  6
CONTINUOUS
 62
           5
  5
305
 10
-1860.154044646279
 20
-766.652188158704
 30
0.0
  0
VERTEX
  8
0
  6
CONTINUOUS
 62
           5
  5
306
 10
-1858.464411689471
 20
-766.59409412738
 30
0.0
  0
VERTEX
  8
0
  6
CONTINUOUS
 62
           5
  5
307
 10
-1847.202004599282
 20
-766.133553409072
 30
0.0
  0
VERTEX
  8
0
  6
CONTINUOUS
 62
           5
  5
308
 10
-1835.860141148193
 20
-765.590879985101
 30
0.0
  0
VERTEX
  8
0
  6
CONTINUOUS
 62
           5
  5
309
 10
-1824.429923390868
 20
-764.959676632838
 30
0.0
  0
VERTEX
  8
0
  6
CONTINUOUS
 62
           5
  5
30A
 10
-1812.902453381974
 20
-764.233546129649
 30
0.0
  0
VERTEX
  8
0
  6
CONTINUOUS
 62
           5
  5
30B
 10
-1804.326961307363
 20
-763.623604201678
 30
0.0
  0
SEQEND
  8
0
  6
CONTINUOUS
 62
           5
  5
30C
  0
POLYLINE
  8
0
  6
CONTINUOUS
 62
           5
  5
30D
 66
           1
 10
0.0
 20
0.0
 30
0.0
 70
         128
  0
VERTEX
  8
0
  6
CONTINUOUS
 62
           5
  5
30E
 10
-1953.84840210805
 20
-762.100704604837
 30
0.0
  0
VERTEX
  8
0
  6
CONTINUOUS
 62
           5
  5
30F
 10
-1946.856935927843
 20
-762.097289613578
 30
0.0
  0
VERTEX
  8
0
  6
CONTINUOUS
 62
           5
  5
310
 10
-1935.972420247078
 20
-762.069320277329
 30
0.0
  0
VERTEX
  8
0
  6
CONTINUOUS
 62
           5
  5
311
 10
-1932.120711320143
 20
-762.04925165979
 30
0.0
  0
SEQEND
  8
0
  6
CONTINUOUS
 62
           5
  5
312
  0
POLYLINE
  8
0
  6
CONTINUOUS
 62
           5
  5
313
 66
           1
 10
0.0
 20
0.0
 30
0.0
 70
         128
  0
VERTEX
  8
0
  6
CONTINUOUS
 62
           5
  5
314
 10
-1882.643627981862
 20
-761.399433113272
 30
0.0
  0
VERTEX
  8
0
  6
CONTINUOUS
 62
           5
  5
315
 10
-1881.701570367935
 20
-761.379341933318
 30
0.0
  0
VERTEX
  8
0
  6
CONTINUOUS
 62
           5
  5
316
 10
-1870.844337350905
 20
-761.089220797305
 30
0.0
  0
VERTEX
  8
0
  6
CONTINUOUS
 62
           5
  5
317
 10
-1860.154044646279
 20
-760.740205285451
 30
0.0
  0
SEQEND
  8
0
  6
CONTINUOUS
 62
           5
  5
318
  0
POLYLINE
  8
0
  6
CONTINUOUS
 62
           5
  5
319
 66
           1
 10
0.0
 20
0.0
 30
0.0
 70
         128
  0
VERTEX
  8
0
  6
CONTINUOUS
 62
           5
  5
31A
 10
-2001.693740147436
 20
-768.017783547234
 30
0.0
  0
VERTEX
  8
0
  6
CONTINUOUS
 62
           5
  5
31B
 10
-1990.654552723463
 20
-768.042820743112
 30
0.0
  0
VERTEX
  8
0
  6
CONTINUOUS
 62
           5
  5
31C
 10
-1979.651582227946
 20
-768.068889127531
 30
0.0
  0
VERTEX
  8
0
  6
CONTINUOUS
 62
           5
  5
31D
 10
-1968.675930715548
 20
-768.08959147786
 30
0.0
  0
VERTEX
  8
0
  6
CONTINUOUS
 62
           5
  5
31E
 10
-1957.718700240937
 20
-768.098530571469
 30
0.0
  0
VERTEX
  8
0
  6
CONTINUOUS
 62
           5
  5
31F
 10
-1953.84840210805
 20
-768.095270572751
 30
0.0
  0
SEQEND
  8
0
  6
CONTINUOUS
 62
           5
  5
320
  0
POLYLINE
  8
0
  6
CONTINUOUS
 62
           5
  5
321
 66
           1
 10
0.0
 20
0.0
 30
0.0
 70
         128
  0
VERTEX
  8
0
  6
CONTINUOUS
 62
           5
  5
322
 10
-1932.120711320143
 20
-768.033648292371
 30
0.0
  0
VERTEX
  8
0
  6
CONTINUOUS
 62
           5
  5
323
 10
-1924.868555590459
 20
-767.990796085657
 30
0.0
  0
VERTEX
  8
0
  6
CONTINUOUS
 62
           5
  5
324
 10
-1913.896029813637
 20
-767.888709926072
 30
0.0
  0
VERTEX
  8
0
  6
CONTINUOUS
 62
           5
  5
325
 10
-1902.897435347924
 20
-767.74287439661
 30
0.0
  0
VERTEX
  8
0
  6
CONTINUOUS
 62
           5
  5
326
 10
-1891.863874247985
 20
-767.54689227464
 30
0.0
  0
VERTEX
  8
0
  6
CONTINUOUS
 62
           5
  5
327
 10
-1882.643627981862
 20
-767.336703427874
 30
0.0
  0
SEQEND
  8
0
  6
CONTINUOUS
 62
           5
  5
328
  0
POLYLINE
  8
0
  6
CONTINUOUS
 62
           5
  5
329
 66
           1
 10
0.0
 20
0.0
 30
0.0
 70
         128
  0
VERTEX
  8
0
  6
CONTINUOUS
 62
           5
  5
32A
 10
-1662.312778524958
 20
-697.485232272648
 30
0.0
  0
VERTEX
  8
0
  6
CONTINUOUS
 62
           5
  5
32B
 10
-1666.039039945995
 20
-697.394999039856
 30
0.0
  0
VERTEX
  8
0
  6
CONTINUOUS
 62
           5
  5
32C
 10
-1687.341714498811
 20
-697.052446719679
 30
0.0
  0
VERTEX
  8
0
  6
CONTINUOUS
 62
           5
  5
32D
 10
-1689.481240156876
 20
-697.033438986852
 30
0.0
  0
SEQEND
  8
0
  6
CONTINUOUS
 62
           5
  5
32E
  0
LINE
  8
0
  6
CONTINUOUS
 62
           5
  5
32F
 10
-1845.969621435505
 20
-703.900781188068
 30
0.0
 11
-2104.236587838859
 21
-707.178301105903
 31
0.0
  0
POLYLINE
  8
0
  6
CONTINUOUS
 62
           5
  5
330
 66
           1
 10
0.0
 20
0.0
 30
0.0
 70
         128
  0
VERTEX
  8
0
  6
CONTINUOUS
 62
           5
  5
331
 10
-1689.699916659374
 20
-703.031846813669
 30
0.0
  0
VERTEX
  8
0
  6
CONTINUOUS
 62
           5
  5
332
 10
-1708.350150345145
 20
-702.866184708175
 30
0.0
  0
VERTEX
  8
0
  6
CONTINUOUS
 62
           5
  5
333
 10
-1729.050868919834
 20
-702.81129482855
 30
0.0
  0
VERTEX
  8
0
  6
CONTINUOUS
 62
           5
  5
334
 10
-1749.430391657707
 20
-702.863933850241
 30
0.0
  0
VERTEX
  8
0
  6
CONTINUOUS
 62
           5
  5
335
 10
-1769.475239993599
 20
-702.999911540378
 30
0.0
  0
VERTEX
  8
0
  6
CONTINUOUS
 62
           5
  5
336
 10
-1789.171935362341
 20
-703.195037666095
 30
0.0
  0
VERTEX
  8
0
  6
CONTINUOUS
 62
           5
  5
337
 10
-1808.506999198768
 20
-703.425121994521
 30
0.0
  0
VERTEX
  8
0
  6
CONTINUOUS
 62
           5
  5
338
 10
-1814.634172300581
 20
-703.502956769002
 30
0.0
  0
SEQEND
  8
0
  6
CONTINUOUS
 62
           5
  5
339
  0
LINE
  8
0
  6
CONTINUOUS
 62
           5
  5
33A
 10
-2132.883742632461
 20
-973.700311896716
 30
0.0
 11
-2132.883742632461
 21
-979.834193051934
 31
0.0
1001
TCAD
1000
TCW_CUSTOM_DATA
1002
{
1000
#$AUX@_ToolInfo Properties
1070
           8
1000
Insert^JLine^JSingle@Line Single
1002
}
  0
LINE
  8
0
  6
CONTINUOUS
 62
           5
  5
33B
 10
-2104.236587838859
 20
-973.554106649015
 30
0.0
 11
-2104.236587838859
 21
-979.687987804233
 31
0.0
1001
TCAD
1000
TCW_CUSTOM_DATA
1002
{
1000
#$AUX@_ToolInfo Properties
1070
           8
1000
Insert^JLine^JSingle@Line Single
1002
}
  0
INSERT
  8
0
  6
CONTINUOUS
 62
           7
  5
356
  2
*E9
 10
0.0
 20
0.0
 30
0.0
1001
TCAD
1000
TCW_CUSTOM_DATA
1002
{
1000
#$AUX@_ToolInfo Properties
1070
           8
1000
Insert^JCurve^JBezier@Curve Bezier
1002
}
1000
TC25ExternalObject
1002
{
1000
TCW30CURVE
1000

1070
           0
1071
        0
1040
1.0
1040
0.0
1000
Continuous
1000
0
1071
        4
1071
      162
1010
-2025.588741831705
1020
-700.179742676992
1030
0.0
1071
     6274
1010
-2039.131194551143
1020
-694.920998129058
1030
0.0
1071
     6274
1010
-2054.485623307429
1020
-690.998744206284
1030
0.0
1071
      162
1010
-2070.904365629838
1020
-690.774852273663
1030
0.0
1070
           3
1071
-2147483643
1070
           1
1000
#$AUX@_ToolInfo Properties
1070
           8
1000
Insert^JCurve^JBezier@Curve Bezier
1000
$SPLINESEGS
1070
          18
1070
          20
1000
$SPLFRAME
1070
          18
1070
           0
1000
$SPLINETYPE
1070
          18
1070
           1
1000
$SHOWCONTRPTS
1070
          18
1070
           1
1000
$CURVESMOOTH
1070
          18
1070
           1
1002
}
  0
LINE
  8
0
  6
CONTINUOUS
 62
           7
  5
357
 10
-2132.883742632462
 20
-707.541281278242
 30
0.0
 11
-2126.592561906076
 21
-720.957777320556
 31
0.0
  0
LINE
  8
0
  6
CONTINUOUS
 62
           7
  5
358
 10
-2126.592561906076
 20
-720.957777320556
 30
0.0
 11
-2111.511311904568
 21
-720.957777320556
 31
0.0
  0
LINE
  8
0
  6
CONTINUOUS
 62
           7
  5
359
 10
-2111.511311904568
 20
-720.957777320556
 30
0.0
 11
-2104.236587838859
 21
-707.178301105903
 31
0.0
  0
LINE
  8
0
  6
CONTINUOUS
 62
           7
  5
35A
 10
-2132.883742632462
 20
-707.541281278242
 30
0.0
 11
-2133.079536741366
 21
-701.543847526352
 31
0.0
1001
TCAD
1000
TCW_CUSTOM_DATA
1002
{
1000
#$AUX@_ToolInfo Properties
1070
           8
1000
Insert^JLine^JSingle@Line Single
1002
}
  0
LINE
  8
0
  6
CONTINUOUS
 62
           7
  5
35B
 10
-2104.236587838859
 20
-707.178301105903
 30
0.0
 11
-2104.289221118814
 21
-701.178485923172
 31
0.0
1001
TCAD
1000
TCW_CUSTOM_DATA
1002
{
1000
#$AUX@_ToolInfo Properties
1070
           8
1000
Insert^JLine^JSingle@Line Single
1002
}
  0
LINE
  8
0
  6
CONTINUOUS
 62
           7
  5
35C
 10
-2157.623286141976
 20
-701.855318360734
 30
0.0
 11
-2133.079536741366
 21
-701.543847526352
 31
0.0
  0
LINE
  8
0
  6
CONTINUOUS
 62
           7
  5
35D
 10
-2104.289221118814
 20
-701.178485923172
 30
0.0
 11
-2025.588741831705
 21
-700.179742676992
 31
0.0
  0
LINE
  8
0
  6
CONTINUOUS
 62
           7
  5
35E
 10
-2167.208077121729
 20
-701.976953519042
 30
0.0
 11
-2215.820030869546
 21
-676.865694561843
 31
0.0
1001
TCAD
1000
TCW_CUSTOM_DATA
1002
{
1000
#$AUX@_ToolInfo Properties
1070
           8
1000
Insert^JLine^JSingle@Line Single
1002
}
  0
POLYLINE
  8
0
  6
CONTINUOUS
 62
           7
  5
35F
 66
           1
 10
0.0
 20
0.0
 30
0.0
 70
         128
  0
VERTEX
  8
0
  6
CONTINUOUS
 62
           7
  5
360
 10
-2070.904365629838
 20
-690.774852273663
 30
0.0
  0
VERTEX
  8
0
  6
CONTINUOUS
 62
           7
  5
361
 10
-2183.372750512222
 20
-591.142938639596
 30
0.0
  0
VERTEX
  8
0
  6
CONTINUOUS
 62
           7
  5
362
 10
-2190.089508734684
 20
-587.112883706119
 30
0.0
  0
VERTEX
  8
0
  6
CONTINUOUS
 62
           7
  5
363
 10
-2197.10478954481
 20
-584.799333651716
 30
0.0
  0
VERTEX
  8
0
  6
CONTINUOUS
 62
           7
  5
364
 10
-2244.34598904492
 20
-584.799333651716
 30
0.0
  0
VERTEX
  8
0
  6
CONTINUOUS
 62
           7
  5
365
 10
-2215.820030869546
 20
-676.865694561843
 30
0.0
  0
SEQEND
  8
0
  6
CONTINUOUS
 62
           7
  5
366
  0
LINE
  8
0
  6
CONTINUOUS
 62
           7
  5
367
 10
-2167.26277971601
 20
-701.948696045218
 30
0.0
 11
-2157.623286142048
 21
-701.855318360734
 31
0.0
  0
POLYLINE
  8
0
  6
CONTINUOUS
 62
          93
  5
368
 66
           1
 10
0.0
 20
0.0
 30
0.0
 70
         128
  0
VERTEX
  8
0
  6
CONTINUOUS
 62
          93
  5
369
 10
-2765.665522260268
 20
-1502.255772154468
 30
0.0
  0
VERTEX
  8
0
  6
CONTINUOUS
 62
          93
  5
36A
 10
-2768.921878327295
 20
-1500.091747998397
 30
0.0
  0
VERTEX
  8
0
  6
CONTINUOUS
 62
          93
  5
36B
 10
-2777.712974743891
 20
-1495.427370695235
 30
0.0
  0
VERTEX
  8
0
  6
CONTINUOUS
 62
          93
  5
36C
 10
-2787.470591969932
 20
-1491.237976683063
 30
0.0
  0
VERTEX
  8
0
  6
CONTINUOUS
 62
          93
  5
36D
 10
-2798.140816913157
 20
-1487.498902399968
 30
0.0
  0
VERTEX
  8
0
  6
CONTINUOUS
 62
          93
  5
36E
 10
-2809.669736481306
 20
-1484.185484284037
 30
0.0
  0
VERTEX
  8
0
  6
CONTINUOUS
 62
          93
  5
36F
 10
-2822.003437582116
 20
-1481.273058773353
 30
0.0
  0
VERTEX
  8
0
  6
CONTINUOUS
 62
          93
  5
370
 10
-2835.08800712333
 20
-1478.736962306003
 30
0.0
  0
VERTEX
  8
0
  6
CONTINUOUS
 62
          93
  5
371
 10
-2848.869532012684
 20
-1476.552531320072
 30
0.0
  0
VERTEX
  8
0
  6
CONTINUOUS
 62
          93
  5
372
 10
-2863.294099157918
 20
-1474.695102253646
 30
0.0
  0
VERTEX
  8
0
  6
CONTINUOUS
 62
          93
  5
373
 10
-2878.307795466772
 20
-1473.140011544811
 30
0.0
  0
VERTEX
  8
0
  6
CONTINUOUS
 62
          93
  5
374
 10
-2893.856707846984
 20
-1471.862595631651
 30
0.0
  0
VERTEX
  8
0
  6
CONTINUOUS
 62
          93
  5
375
 10
-2909.886923206295
 20
-1470.838190952252
 30
0.0
  0
VERTEX
  8
0
  6
CONTINUOUS
 62
          93
  5
376
 10
-2926.344528452444
 20
-1470.0421339447
 30
0.0
  0
VERTEX
  8
0
  6
CONTINUOUS
 62
          93
  5
377
 10
-2943.17561049317
 20
-1469.449761047081
 30
0.0
  0
VERTEX
  8
0
  6
CONTINUOUS
 62
          93
  5
378
 10
-2960.326256236211
 20
-1469.036408697479
 30
0.0
  0
VERTEX
  8
0
  6
CONTINUOUS
 62
          93
  5
379
 10
-2977.742552589309
 20
-1468.777413333981
 30
0.0
  0
VERTEX
  8
0
  6
CONTINUOUS
 62
          93
  5
37A
 10
-2995.3705864602
 20
-1468.648111394671
 30
0.0
  0
VERTEX
  8
0
  6
CONTINUOUS
 62
          93
  5
37B
 10
-3013.156444756624
 20
-1468.623839317636
 30
0.0
  0
VERTEX
  8
0
  6
CONTINUOUS
 62
          93
  5
37C
 10
-3031.046214386322
 20
-1468.679933540961
 30
0.0
  0
VERTEX
  8
0
  6
CONTINUOUS
 62
          93
  5
37D
 10
-3048.985982257032
 20
-1468.791730502731
 30
0.0
  0
SEQEND
  8
0
  6
CONTINUOUS
 62
          93
  5
37E
  0
POLYLINE
  8
0
  6
CONTINUOUS
 62
          93
  5
37F
 66
           1
 10
0.0
 20
0.0
 30
0.0
 70
         128
  0
VERTEX
  8
0
  6
CONTINUOUS
 62
          93
  5
380
 10
-2765.665522260271
 20
-1508.255772154468
 30
0.0
  0
VERTEX
  8
0
  6
CONTINUOUS
 62
          93
  5
381
 10
-2768.921878327295
 20
-1510.419796310535
 30
0.0
  0
VERTEX
  8
0
  6
CONTINUOUS
 62
          93
  5
382
 10
-2777.712974743891
 20
-1515.084173613699
 30
0.0
  0
VERTEX
  8
0
  6
CONTINUOUS
 62
          93
  5
383
 10
-2787.470591969932
 20
-1519.27356762587
 30
0.0
  0
VERTEX
  8
0
  6
CONTINUOUS
 62
          93
  5
384
 10
-2798.140816913157
 20
-1523.012641908965
 30
0.0
  0
VERTEX
  8
0
  6
CONTINUOUS
 62
          93
  5
385
 10
-2809.669736481306
 20
-1526.326060024896
 30
0.0
  0
VERTEX
  8
0
  6
CONTINUOUS
 62
          93
  5
386
 10
-2822.003437582116
 20
-1529.23848553558
 30
0.0
  0
VERTEX
  8
0
  6
CONTINUOUS
 62
          93
  5
387
 10
-2835.08800712333
 20
-1531.77458200293
 30
0.0
  0
VERTEX
  8
0
  6
CONTINUOUS
 62
          93
  5
388
 10
-2848.869532012684
 20
-1533.959012988861
 30
0.0
  0
VERTEX
  8
0
  6
CONTINUOUS
 62
          93
  5
389
 10
-2863.294099157918
 20
-1535.816442055287
 30
0.0
  0
VERTEX
  8
0
  6
CONTINUOUS
 62
          93
  5
38A
 10
-2878.307795466772
 20
-1537.371532764122
 30
0.0
  0
VERTEX
  8
0
  6
CONTINUOUS
 62
          93
  5
38B
 10
-2893.856707846984
 20
-1538.648948677283
 30
0.0
  0
VERTEX
  8
0
  6
CONTINUOUS
 62
          93
  5
38C
 10
-2909.886923206295
 20
-1539.673353356681
 30
0.0
  0
VERTEX
  8
0
  6
CONTINUOUS
 62
          93
  5
38D
 10
-2926.344528452444
 20
-1540.469410364233
 30
0.0
  0
VERTEX
  8
0
  6
CONTINUOUS
 62
          93
  5
38E
 10
-2943.17561049317
 20
-1541.061783261853
 30
0.0
  0
VERTEX
  8
0
  6
CONTINUOUS
 62
          93
  5
38F
 10
-2960.326256236211
 20
-1541.475135611454
 30
0.0
  0
VERTEX
  8
0
  6
CONTINUOUS
 62
          93
  5
390
 10
-2977.742552589309
 20
-1541.734130974953
 30
0.0
  0
VERTEX
  8
0
  6
CONTINUOUS
 62
          93
  5
391
 10
-2995.3705864602
 20
-1541.863432914262
 30
0.0
  0
VERTEX
  8
0
  6
CONTINUOUS
 62
          93
  5
392
 10
-3013.156444756623
 20
-1541.887704991297
 30
0.0
  0
VERTEX
  8
0
  6
CONTINUOUS
 62
          93
  5
393
 10
-3031.046214386322
 20
-1541.831610767972
 30
0.0
  0
VERTEX
  8
0
  6
CONTINUOUS
 62
          93
  5
394
 10
-3048.985982257032
 20
-1541.719813806202
 30
0.0
  0
SEQEND
  8
0
  6
CONTINUOUS
 62
          93
  5
395
  0
POLYLINE
  8
0
  6
CONTINUOUS
 62
          93
  5
396
 66
           1
 10
0.0
 20
0.0
 30
0.0
 70
         128
1001
TCAD
1000
TCW_CUSTOM_DATA
1002
{
1000
#$AUX@_ToolInfo Properties
1070
           8
1000
Insert^JLine^JRectangle@Line Rectangle
1002
}
  0
VERTEX
  8
0
  6
CONTINUOUS
 62
          93
  5
397
 10
-2765.665522260271
 20
-1508.255772154468
 30
0.0
  0
VERTEX
  8
0
  6
CONTINUOUS
 62
          93
  5
398
 10
-2898.290365087127
 20
-1508.255772154468
 30
0.0
  0
VERTEX
  8
0
  6
CONTINUOUS
 62
          93
  5
399
 10
-2898.290365087127
 20
-1502.255772154468
 30
0.0
  0
VERTEX
  8
0
  6
CONTINUOUS
 62
          93
  5
39A
 10
-2765.665522260267
 20
-1502.255772154468
 30
0.0
  0
SEQEND
  8
0
  6
CONTINUOUS
 62
          93
  5
39B
  0
POLYLINE
  8
0
  6
CONTINUOUS
 62
          93
  5
39C
 66
           1
 10
0.0
 20
0.0
 30
0.0
 70
         128
1001
TCAD
1000
TCW_REFPOINT
1002
{
1010
-3048.985982257032
1020
-1468.791730502731
1030
0.0
1002
}
1000
TCW_CUSTOM_DATA
1002
{
1000
#$AUX@_ToolInfo Properties
1070
           8
1000
Insert^JLine^JPolyline@Line Polyline
1002
}
  0
VERTEX
  8
0
  6
CONTINUOUS
 62
          93
  5
39D
 10
-3048.985982257032
 20
-1468.791730502731
 30
0.0
  0
VERTEX
  8
0
  6
CONTINUOUS
 62
          93
  5
39E
 10
-3048.985982257032
 20
-1481.343564507189
 30
0.0
  0
VERTEX
  8
0
  6
CONTINUOUS
 62
          93
  5
39F
 10
-3020.773336709117
 20
-1486.370647841025
 30
0.0
  0
VERTEX
  8
0
  6
CONTINUOUS
 62
          93
  5
3A0
 10
-3020.773336709117
 20
-1505.255772154468
 30
0.0
  0
SEQEND
  8
0
  6
CONTINUOUS
 62
          93
  5
3A1
  0
POLYLINE
  8
0
  6
CONTINUOUS
 62
          93
  5
3A2
 66
           1
 10
0.0
 20
0.0
 30
0.0
 70
         128
1001
TCAD
1000
TCW_REFPOINT
1002
{
1010
-3048.985982257032
1020
-1541.719813806205
1030
0.0
1002
}
1000
TCW_CUSTOM_DATA
1002
{
1000
#$AUX@_ToolInfo Properties
1070
           8
1000
Insert^JLine^JPolyline@Line Polyline
1002
}
  0
VERTEX
  8
0
  6
CONTINUOUS
 62
          93
  5
3A3
 10
-3048.985982257032
 20
-1541.719813806205
 30
0.0
  0
VERTEX
  8
0
  6
CONTINUOUS
 62
          93
  5
3A4
 10
-3048.985982257032
 20
-1529.167979801748
 30
0.0
  0
VERTEX
  8
0
  6
CONTINUOUS
 62
          93
  5
3A5
 10
-3020.773336709117
 20
-1524.140896467912
 30
0.0
  0
VERTEX
  8
0
  6
CONTINUOUS
 62
          93
  5
3A6
 10
-3020.773336709117
 20
-1505.255772154468
 30
0.0
  0
SEQEND
  8
0
  6
CONTINUOUS
 62
          93
  5
3A7
  0
POLYLINE
  8
0
  6
CONTINUOUS
 62
          30
  5
3A8
 66
           1
 10
0.0
 20
0.0
 30
0.0
 70
         128
  0
VERTEX
  8
0
  6
CONTINUOUS
 62
          30
  5
3A9
 10
-2730.876273796196
 20
-1612.351961029027
 30
0.0
  0
VERTEX
  8
0
  6
CONTINUOUS
 62
          30
  5
3AA
 10
-2733.784290475504
 20
-1611.59368800217
 30
0.0
  0
VERTEX
  8
0
  6
CONTINUOUS
 62
          30
  5
3AB
 10
-2741.162798643964
 20
-1609.740707200665
 30
0.0
  0
VERTEX
  8
0
  6
CONTINUOUS
 62
          30
  5
3AC
 10
-2748.595936446013
 20
-1607.912482479382
 30
0.0
  0
VERTEX
  8
0
  6
CONTINUOUS
 62
          30
  5
3AD
 10
-2756.048328955006
 20
-1606.086254161142
 30
0.0
  0
VERTEX
  8
0
  6
CONTINUOUS
 62
          30
  5
3AE
 10
-2763.4846012443
 20
-1604.239262568769
 30
0.0
  0
VERTEX
  8
0
  6
CONTINUOUS
 62
          30
  5
3AF
 10
-2770.86937838725
 20
-1602.348748025082
 30
0.0
  0
VERTEX
  8
0
  6
CONTINUOUS
 62
          30
  5
3B0
 10
-2778.167285457213
 20
-1600.391950852904
 30
0.0
  0
VERTEX
  8
0
  6
CONTINUOUS
 62
          30
  5
3B1
 10
-2785.342947527545
 20
-1598.346111375055
 30
0.0
  0
VERTEX
  8
0
  6
CONTINUOUS
 62
          30
  5
3B2
 10
-2792.360989671602
 20
-1596.188469914359
 30
0.0
  0
VERTEX
  8
0
  6
CONTINUOUS
 62
          30
  5
3B3
 10
-2799.186036962738
 20
-1593.896266793636
 30
0.0
  0
SEQEND
  8
0
  6
CONTINUOUS
 62
          30
  5
3B4
  0
LINE
  8
0
  6
CONTINUOUS
 62
          30
  5
3B5
 10
-2799.186036962738
 20
-1593.896266793636
 30
0.0
 11
-2833.093302962817
 21
-1573.152998195237
 31
0.0
1001
TCAD
1000
TCW_CUSTOM_DATA
1002
{
1000
#$AUX@_ToolInfo Properties
1070
           8
1000
Insert^JLine^JPolyline@Line Polyline
1002
}
  0
INSERT
  8
0
  6
CONTINUOUS
 62
          30
  5
3D0
  2
*E10
 10
0.0
 20
0.0
 30
0.0
1001
TCAD
1000
TCW_CUSTOM_DATA
1002
{
1000
#$AUX@_ToolInfo Properties
1070
           8
1000
Insert^JCurve^JBezier@Curve Bezier
1002
}
1000
TC25ExternalObject
1002
{
1000
TCW30CURVE
1000

1070
           0
1071
    32511
1040
1.0
1040
0.0
1000
Continuous
1000
0
1071
        4
1071
      162
1010
-2833.093302962817
1020
-1573.152998195237
1030
0.0
1071
     6274
1010
-2871.073462719146
1020
-1554.767631162173
1030
0.0
1071
     6274
1010
-2958.89562134562
1020
-1568.779142352437
1030
0.0
1071
      162
1010
-3000.688783613655
1020
-1575.943684455217
1030
0.0
1070
           3
1071
-2147483643
1070
           1
1000
#$AUX@_ToolInfo Properties
1070
           8
1000
Insert^JCurve^JBezier@Curve Bezier
1000
$SPLINESEGS
1070
          18
1070
          20
1000
$SPLFRAME
1070
          18
1070
           0
1000
$SPLINETYPE
1070
          18
1070
           1
1000
$SHOWCONTRPTS
1070
          18
1070
           1
1000
$CURVESMOOTH
1070
          18
1070
           1
1002
}
  0
POLYLINE
  8
0
  6
CONTINUOUS
 62
          30
  5
3D1
 66
           1
 10
0.0
 20
0.0
 30
0.0
 70
         128
1001
TCAD
1000
TCW_CUSTOM_DATA
1002
{
1000
#$AUX@_ToolInfo Properties
1070
           8
1000
Insert^JLine^JPolyline@Line Polyline
1002
}
  0
VERTEX
  8
0
  6
CONTINUOUS
 62
          30
  5
3D2
 10
-3000.688783613655
 20
-1575.943684455217
 30
0.0
  0
VERTEX
  8
0
  6
CONTINUOUS
 62
          30
  5
3D3
 10
-3136.516560988339
 20
-1601.318104405292
 30
0.0
  0
VERTEX
  8
0
  6
CONTINUOUS
 62
          30
  5
3D4
 10
-3240.926949791453
 20
-1604.126778471157
 30
0.0
  0
VERTEX
  8
0
  6
CONTINUOUS
 62
          30
  5
3D5
 10
-3240.926949791453
 20
-1613.966473160834
 30
0.0
  0
SEQEND
  8
0
  6
CONTINUOUS
 62
          30
  5
3D6
  0
POLYLINE
  8
0
  6
CONTINUOUS
 62
          30
  5
3D7
 66
           1
 10
0.0
 20
0.0
 30
0.0
 70
         128
  0
VERTEX
  8
0
  6
CONTINUOUS
 62
          30
  5
3D8
 10
-2994.252156626603
 20
-1611.482117277559
 30
0.0
  0
VERTEX
  8
0
  6
CONTINUOUS
 62
          30
  5
3D9
 10
-3003.031830451772
 20
-1611.458824913266
 30
0.0
  0
VERTEX
  8
0
  6
CONTINUOUS
 62
          30
  5
3DA
 10
-3023.411353189645
 20
-1611.511438691837
 30
0.0
  0
VERTEX
  8
0
  6
CONTINUOUS
 62
          30
  5
3DB
 10
-3043.456201525537
 20
-1611.647395486953
 30
0.0
  0
VERTEX
  8
0
  6
CONTINUOUS
 62
          30
  5
3DC
 10
-3063.152896894279
 20
-1611.842505790427
 30
0.0
  0
VERTEX
  8
0
  6
CONTINUOUS
 62
          30
  5
3DD
 10
-3082.487960730706
 20
-1612.072580094073
 30
0.0
  0
VERTEX
  8
0
  6
CONTINUOUS
 62
          30
  5
3DE
 10
-3101.44791446965
 20
-1612.313428889706
 30
0.0
  0
SEQEND
  8
0
  6
CONTINUOUS
 62
          30
  5
3DF
  0
POLYLINE
  8
0
  6
CONTINUOUS
 62
          30
  5
3E0
 66
           1
 10
0.0
 20
0.0
 30
0.0
 70
         128
1001
TCAD
1000
TCW_CUSTOM_DATA
1002
{
1000
#$AUX@_ToolInfo Properties
1070
           8
1000
Insert^JLine^JPolyline@Line Polyline
1002
}
  0
VERTEX
  8
0
  6
CONTINUOUS
 62
          30
  5
3E1
 10
-2730.876273796196
 20
-1612.351961029027
 30
0.0
  0
VERTEX
  8
0
  6
CONTINUOUS
 62
          30
  5
3E2
 10
-2753.94418502343
 20
-1624.109855544603
 30
0.0
  0
VERTEX
  8
0
  6
CONTINUOUS
 62
          30
  5
3E3
 10
-2754.589777231168
 20
-1630.031517542142
 30
0.0
  0
VERTEX
  8
0
  6
CONTINUOUS
 62
          30
  5
3E4
 10
-2766.275970913457
 20
-1638.453213035271
 30
0.0
  0
VERTEX
  8
0
  6
CONTINUOUS
 62
          30
  5
3E5
 10
-2796.360092811133
 20
-1635.258449434254
 30
0.0
  0
VERTEX
  8
0
  6
CONTINUOUS
 62
          30
  5
3E6
 10
-2803.750156814514
 20
-1625.005382856155
 30
0.0
  0
VERTEX
  8
0
  6
CONTINUOUS
 62
          30
  5
3E7
 10
-2803.21511350892
 20
-1619.054427712071
 30
0.0
  0
SEQEND
  8
0
  6
CONTINUOUS
 62
          30
  5
3E8
  0
POLYLINE
  8
0
  6
CONTINUOUS
 62
          30
  5
3E9
 66
           1
 10
0.0
 20
0.0
 30
0.0
 70
         128
1001
TCAD
1000
TCW_REFPOINT
1002
{
1010
-2994.252156626603
1020
-1611.482117277559
1030
0.0
1002
}
1000
TCW_CUSTOM_DATA
1002
{
1000
#$AUX@_ToolInfo Properties
1070
           8
1000
Insert^JLine^JPolyline@Line Polyline
1002
}
  0
VERTEX
  8
0
  6
CONTINUOUS
 62
          30
  5
3EA
 10
-2944.770020511332
 20
-1611.966555267858
 30
0.0
  0
VERTEX
  8
0
  6
CONTINUOUS
 62
          30
  5
3EB
 10
-2944.829326072734
 20
-1617.986242837958
 30
0.0
  0
VERTEX
  8
0
  6
CONTINUOUS
 62
          30
  5
3EC
 10
-2957.208486813167
 20
-1627.249978325582
 30
0.0
  0
VERTEX
  8
0
  6
CONTINUOUS
 62
          30
  5
3ED
 10
-2985.950223220344
 20
-1626.99467768705
 30
0.0
  0
VERTEX
  8
0
  6
CONTINUOUS
 62
          30
  5
3EE
 10
-2994.243139187212
 20
-1617.457069758671
 30
0.0
  0
VERTEX
  8
0
  6
CONTINUOUS
 62
          30
  5
3EF
 10
-2994.252156626603
 20
-1611.482117277559
 30
0.0
  0
SEQEND
  8
0
  6
CONTINUOUS
 62
          30
  5
3F0
  0
POLYLINE
  8
0
  6
CONTINUOUS
 62
          30
  5
3F1
 66
           1
 10
0.0
 20
0.0
 30
0.0
 70
         128
  0
VERTEX
  8
0
  6
CONTINUOUS
 62
          30
  5
3F2
 10
-2803.21511350892
 20
-1619.054427712071
 30
0.0
  0
VERTEX
  8
0
  6
CONTINUOUS
 62
          30
  5
3F3
 10
-2806.779740974313
 20
-1618.727005501293
 30
0.0
  0
VERTEX
  8
0
  6
CONTINUOUS
 62
          30
  5
3F4
 10
-2829.5647978975
 20
-1616.9410042626
 30
0.0
  0
VERTEX
  8
0
  6
CONTINUOUS
 62
          30
  5
3F5
 10
-2852.13648750521
 20
-1615.456051614124
 30
0.0
  0
VERTEX
  8
0
  6
CONTINUOUS
 62
          30
  5
3F6
 10
-2874.481331232276
 20
-1614.24795804768
 30
0.0
  0
VERTEX
  8
0
  6
CONTINUOUS
 62
          30
  5
3F7
 10
-2896.585850513528
 20
-1613.292534055081
 30
0.0
  0
VERTEX
  8
0
  6
CONTINUOUS
 62
          30
  5
3F8
 10
-2918.436566783804
 20
-1612.565590128143
 30
0.0
  0
VERTEX
  8
0
  6
CONTINUOUS
 62
          30
  5
3F9
 10
-2940.020001477932
 20
-1612.042936758677
 30
0.0
  0
VERTEX
  8
0
  6
CONTINUOUS
 62
          30
  5
3FA
 10
-2944.770020511332
 20
-1611.966555267858
 30
0.0
  0
SEQEND
  8
0
  6
CONTINUOUS
 62
          30
  5
3FB
  0
LINE
  8
0
  6
CONTINUOUS
 62
          30
  5
3FC
 10
-3216.74956098008
 20
-1613.776656836586
 30
0.0
 11
-3216.655561856146
 21
-1619.7759470688
 31
0.0
1001
TCAD
1000
TCW_CUSTOM_DATA
1002
{
1000
#$AUX@_ToolInfo Properties
1070
           8
1000
Insert^JLine^JPolyline@Line Polyline
1002
}
  0
POLYLINE
  8
0
  6
CONTINUOUS
 62
          30
  5
3FD
 66
           1
 10
0.0
 20
0.0
 30
0.0
 70
         128
1001
TCAD
1000
TCW_CUSTOM_DATA
1002
{
1000
#$AUX@_ToolInfo Properties
1070
           8
1000
Insert^JLine^JPolyline@Line Polyline
1002
}
  0
VERTEX
  8
0
  6
CONTINUOUS
 62
          30
  5
3FE
 10
-3216.655561856146
 20
-1619.7759470688
 30
0.0
  0
VERTEX
  8
0
  6
CONTINUOUS
 62
          30
  5
3FF
 10
-3226.418633238483
 20
-1648.596878162626
 30
0.0
  0
VERTEX
  8
0
  6
CONTINUOUS
 62
          30
  5
400
 10
-3236.953797188265
 20
-1648.823430853491
 30
0.0
  0
SEQEND
  8
0
  6
CONTINUOUS
 62
          30
  5
401
  0
LINE
  8
0
  6
CONTINUOUS
 62
          30
  5
402
 10
-3216.74956098008
 20
-1613.776656836586
 30
0.0
 11
-3101.447914470183
 21
-1612.313428889713
 31
0.0
  0
POLYLINE
  8
0
  6
CONTINUOUS
 62
          30
  5
403
 66
           1
 10
0.0
 20
0.0
 30
0.0
 70
         128
1001
TCAD
1000
TCW_CUSTOM_DATA
1002
{
1000
#$AUX@_ToolInfo Properties
1070
           8
1000
Insert^JLine^JPolyline@Line Polyline
1002
}
  0
VERTEX
  8
0
  6
CONTINUOUS
 62
          30
  5
404
 10
-3240.926949791453
 20
-1613.966473160834
 30
0.0
  0
VERTEX
  8
0
  6
CONTINUOUS
 62
          30
  5
405
 10
-3240.926949791453
 20
-1635.464130555156
 30
0.0
  0
VERTEX
  8
0
  6
CONTINUOUS
 62
          30
  5
406
 10
-3236.682015684793
 20
-1648.817586347298
 30
0.0
  0
SEQEND
  8
0
  6
CONTINUOUS
 62
          30
  5
407
  0
POLYLINE
  8
0
  6
CONTINUOUS
 62
          30
  5
408
 66
           1
 10
0.0
 20
0.0
 30
0.0
 70
         128
  0
VERTEX
  8
0
  6
CONTINUOUS
 62
          30
  5
409
 10
-2827.94488212175
 20
-1687.277401080536
 30
0.0
  0
VERTEX
  8
0
  6
CONTINUOUS
 62
          30
  5
40A
 10
-2832.387719162222
 20
-1683.64996470281
 30
0.0
  0
VERTEX
  8
0
  6
CONTINUOUS
 62
          30
  5
40B
 10
-2837.274310029368
 20
-1680.29764085427
 30
0.0
  0
VERTEX
  8
0
  6
CONTINUOUS
 62
          30
  5
40C
 10
-2842.569279796544
 20
-1677.197669857735
 30
0.0
  0
VERTEX
  8
0
  6
CONTINUOUS
 62
          30
  5
40D
 10
-2848.237253537106
 20
-1674.327292036029
 30
0.0
  0
VERTEX
  8
0
  6
CONTINUOUS
 62
          30
  5
40E
 10
-2854.242856324408
 20
-1671.663747711972
 30
0.0
  0
VERTEX
  8
0
  6
CONTINUOUS
 62
          30
  5
40F
 10
-2860.550713231809
 20
-1669.184277208386
 30
0.0
  0
VERTEX
  8
0
  6
CONTINUOUS
 62
          30
  5
410
 10
-2867.125449332663
 20
-1666.866120848093
 30
0.0
  0
VERTEX
  8
0
  6
CONTINUOUS
 62
          30
  5
411
 10
-2873.931689700326
 20
-1664.686518953915
 30
0.0
  0
VERTEX
  8
0
  6
CONTINUOUS
 62
          30
  5
412
 10
-2880.934059408154
 20
-1662.622711848672
 30
0.0
  0
VERTEX
  8
0
  6
CONTINUOUS
 62
          30
  5
413
 10
-2888.097183529504
 20
-1660.651939855187
 30
0.0
  0
VERTEX
  8
0
  6
CONTINUOUS
 62
          30
  5
414
 10
-2892.47767045842
 20
-1659.509716323138
 30
0.0
  0
SEQEND
  8
0
  6
CONTINUOUS
 62
          30
  5
415
  0
POLYLINE
  8
0
  6
CONTINUOUS
 62
          30
  5
416
 66
           1
 10
0.0
 20
0.0
 30
0.0
 70
         128
  0
VERTEX
  8
0
  6
CONTINUOUS
 62
          30
  5
417
 10
-3233.085234394587
 20
-1724.971776008106
 30
0.0
  0
VERTEX
  8
0
  6
CONTINUOUS
 62
          30
  5
418
 10
-3229.818391108254
 20
-1724.714509830089
 30
0.0
  0
VERTEX
  8
0
  6
CONTINUOUS
 62
          30
  5
419
 10
-3218.730265007102
 20
-1723.738059883789
 30
0.0
  0
SEQEND
  8
0
  6
CONTINUOUS
 62
          30
  5
41A
  0
POLYLINE
  8
0
  6
CONTINUOUS
 62
          30
  5
41B
 66
           1
 10
0.0
 20
0.0
 30
0.0
 70
         128
1001
TCAD
1000
TCW_CUSTOM_DATA
1002
{
1000
#$AUX@_ToolInfo Properties
1070
           8
1000
Insert^JLine^JPolyline@Line Polyline
1002
}
  0
VERTEX
  8
0
  6
CONTINUOUS
 62
          30
  5
41C
 10
-3218.730265015198
 20
-1723.738059888075
 30
0.0
  0
VERTEX
  8
0
  6
CONTINUOUS
 62
          30
  5
41D
 10
-3215.427200868948
 20
-1707.881854638673
 30
0.0
  0
VERTEX
  8
0
  6
CONTINUOUS
 62
          30
  5
41E
 10
-2965.391723313129
 20
-1708.127643233394
 30
0.0
  0
SEQEND
  8
0
  6
CONTINUOUS
 62
          30
  5
41F
  0
INSERT
  8
0
  6
CONTINUOUS
 62
          30
  5
43A
  2
*E11
 10
0.0
 20
0.0
 30
0.0
1001
TCAD
1000
TCW_CUSTOM_DATA
1002
{
1000
#$AUX@_ToolInfo Properties
1070
           8
1000
Insert^JCurve^JBezier@Curve Bezier
1002
}
1000
TC25ExternalObject
1002
{
1000
TCW30CURVE
1000

1070
           0
1071
    32511
1040
1.0
1040
0.0
1000
Continuous
1000
0
1071
        4
1071
      162
1010
-2965.391723313129
1020
-1708.127643233394
1030
0.0
1071
     6274
1010
-2918.971460948912
1020
-1708.202273879139
1030
0.0
1071
     6274
1010
-2868.543954048069
1020
-1706.084324104056
1030
0.0
1071
      162
1010
-2827.94488212175
1020
-1687.277401080536
1030
0.0
1070
           3
1071
-2147483643
1070
           1
1000
#$AUX@_ToolInfo Properties
1070
           8
1000
Insert^JCurve^JBezier@Curve Bezier
1000
$SPLINESEGS
1070
          18
1070
          20
1000
$SPLFRAME
1070
          18
1070
           0
1000
$SPLINETYPE
1070
          18
1070
           1
1000
$SHOWCONTRPTS
1070
          18
1070
           1
1000
$CURVESMOOTH
1070
          18
1070
           1
1002
}
  0
LINE
  8
0
  6
CONTINUOUS
 62
          30
  5
43B
 10
-2892.47767045842
 20
-1659.509716323138
 30
0.0
 11
-2915.545581685656
 21
-1671.267610838714
 31
0.0
  0
LINE
  8
0
  6
CONTINUOUS
 62
          30
  5
43C
 10
-2915.545581685656
 20
-1671.267610838714
 30
0.0
 11
-2916.191173893392
 21
-1677.189272836252
 31
0.0
  0
LINE
  8
0
  6
CONTINUOUS
 62
          30
  5
43D
 10
-2916.191173893392
 20
-1677.189272836252
 30
0.0
 11
-2927.877367575682
 21
-1685.610968329382
 31
0.0
  0
LINE
  8
0
  6
CONTINUOUS
 62
          30
  5
43E
 10
-2927.877367575682
 20
-1685.610968329382
 30
0.0
 11
-2957.961489473357
 21
-1682.416204728365
 31
0.0
  0
LINE
  8
0
  6
CONTINUOUS
 62
          30
  5
43F
 10
-2957.961489473357
 20
-1682.416204728365
 30
0.0
 11
-2965.351553476739
 21
-1672.163138150266
 31
0.0
  0
LINE
  8
0
  6
CONTINUOUS
 62
          30
  5
440
 10
-3106.43072273496
 20
-1665.14399813207
 30
0.0
 11
-3118.809883475391
 21
-1674.407733619693
 31
0.0
  0
LINE
  8
0
  6
CONTINUOUS
 62
          30
  5
441
 10
-3118.809883475391
 20
-1674.407733619693
 30
0.0
 11
-3147.551619882569
 21
-1674.152432981161
 31
0.0
  0
LINE
  8
0
  6
CONTINUOUS
 62
          30
  5
442
 10
-3147.551619882569
 20
-1674.152432981161
 30
0.0
 11
-3155.844535849437
 21
-1664.614825052782
 31
0.0
  0
POLYLINE
  8
0
  6
CONTINUOUS
 62
          30
  5
443
 66
           1
 10
0.0
 20
0.0
 30
0.0
 70
         128
  0
VERTEX
  8
0
  6
CONTINUOUS
 62
          30
  5
444
 10
-2965.351553476739
 20
-1672.163138150266
 30
0.0
  0
VERTEX
  8
0
  6
CONTINUOUS
 62
          30
  5
445
 10
-2968.381137636539
 20
-1671.884865149735
 30
0.0
  0
VERTEX
  8
0
  6
CONTINUOUS
 62
          30
  5
446
 10
-2991.166194559726
 20
-1670.098895676307
 30
0.0
  0
VERTEX
  8
0
  6
CONTINUOUS
 62
          30
  5
447
 10
-3013.737884167436
 20
-1668.613976967145
 30
0.0
  0
VERTEX
  8
0
  6
CONTINUOUS
 62
          30
  5
448
 10
-3036.082727894502
 20
-1667.40591878938
 30
0.0
  0
VERTEX
  8
0
  6
CONTINUOUS
 62
          30
  5
449
 10
-3058.187247175754
 20
-1666.450530910143
 30
0.0
  0
VERTEX
  8
0
  6
CONTINUOUS
 62
          30
  5
44A
 10
-3080.03796344603
 20
-1665.723623096567
 30
0.0
  0
VERTEX
  8
0
  6
CONTINUOUS
 62
          30
  5
44B
 10
-3101.621398140158
 20
-1665.201005115781
 30
0.0
  0
VERTEX
  8
0
  6
CONTINUOUS
 62
          30
  5
44C
 10
-3106.430522570521
 20
-1665.123680857309
 30
0.0
  0
SEQEND
  8
0
  6
CONTINUOUS
 62
          30
  5
44D
  0
LINE
  8
0
  6
CONTINUOUS
 62
          30
  5
44E
 10
-3233.085234394587
 20
-1724.971776008106
 30
0.0
 11
-3233.636749976045
 21
-1719.015208243241
 31
0.0
1001
TCAD
1000
TCW_CUSTOM_DATA
1002
{
1000
#$AUX@_ToolInfo Properties
1070
           8
1000
Insert^JLine^JSingle@Line Single
1002
}
  0
POLYLINE
  8
0
  6
CONTINUOUS
 62
          30
  5
44F
 66
           1
 10
0.0
 20
0.0
 30
0.0
 70
         128
  0
VERTEX
  8
0
  6
CONTINUOUS
 62
          30
  5
450
 10
-3248.021492328087
 20
-1720.084484255476
 30
0.0
  0
VERTEX
  8
0
  6
CONTINUOUS
 62
          30
  5
451
 10
-3240.860951200824
 20
-1719.584119107774
 30
0.0
  0
VERTEX
  8
0
  6
CONTINUOUS
 62
          30
  5
452
 10
-3233.636749976045
 20
-1719.015208243241
 30
0.0
  0
SEQEND
  8
0
  6
CONTINUOUS
 62
          30
  5
453
  0
LINE
  8
0
  6
CONTINUOUS
 62
          30
  5
454
 10
-3248.021492328087
 20
-1720.084484255476
 30
0.0
 11
-3236.108651404773
 21
-1665.135845816082
 31
0.0
1001
TCAD
1000
TCW_CUSTOM_DATA
1002
{
1000
#$AUX@_ToolInfo Properties
1070
           8
1000
Insert^JLine^JPolyline@Line Polyline
1002
}
  0
POLYLINE
  8
0
  6
CONTINUOUS
 62
          30
  5
455
 66
           1
 10
0.0
 20
0.0
 30
0.0
 70
         128
  0
VERTEX
  8
0
  6
CONTINUOUS
 62
          30
  5
456
 10
-3155.822341369571
 20
-1664.640350724087
 30
0.0
  0
VERTEX
  8
0
  6
CONTINUOUS
 62
          30
  5
457
 10
-3164.633227113996
 20
-1664.616987841482
 30
0.0
  0
VERTEX
  8
0
  6
CONTINUOUS
 62
          30
  5
458
 10
-3185.012749851871
 20
-1664.669626863173
 30
0.0
  0
VERTEX
  8
0
  6
CONTINUOUS
 62
          30
  5
459
 10
-3205.057598187763
 20
-1664.80560455331
 30
0.0
  0
VERTEX
  8
0
  6
CONTINUOUS
 62
          30
  5
45A
 10
-3224.754293556505
 20
-1665.000730679027
 30
0.0
  0
VERTEX
  8
0
  6
CONTINUOUS
 62
          30
  5
45B
 10
-3236.108651404773
 20
-1665.135845816082
 30
0.0
  0
SEQEND
  8
0
  6
CONTINUOUS
 62
          30
  5
45C
  0
LINE
  8
0
  6
CONTINUOUS
 62
          30
  5
45D
 10
-2748.732451467346
 20
-1570.863998196242
 30
0.0
 11
-2742.648754682179
 21
-1570.863998196242
 31
0.0
  0
LINE
  8
0
  6
CONTINUOUS
 62
          30
  5
45E
 10
-2748.732451467346
 20
-1570.863998196242
 30
0.0
 11
-2742.648754682179
 21
-1570.863998196242
 31
0.0
1001
TCAD
1000
TCW_CUSTOM_DATA
1002
{
1000
#$AUX@_ToolInfo Properties
1070
           8
1000
Insert^JLine^JSingle@Line Single
1002
}
  0
POLYLINE
  8
0
  6
CONTINUOUS
 62
          30
  5
45F
 66
           1
 10
0.0
 20
0.0
 30
0.0
 70
         128
1001
TCAD
1000
TCW_CUSTOM_DATA
1002
{
1000
#$AUX@_ToolInfo Properties
1070
           8
1000
Insert^JLine^JPolyline@Line Polyline
1002
}
  0
VERTEX
  8
0
  6
CONTINUOUS
 62
          30
  5
460
 10
-2748.757275090801
 20
-1539.773301370467
 30
0.0
  0
VERTEX
  8
0
  6
CONTINUOUS
 62
          30
  5
461
 10
-2755.076240053544
 20
-1546.661395947077
 30
0.0
  0
VERTEX
  8
0
  6
CONTINUOUS
 62
          30
  5
462
 10
-2793.065533055896
 20
-1549.843274186631
 30
0.0
  0
VERTEX
  8
0
  6
CONTINUOUS
 62
          30
  5
463
 10
-2805.821135529802
 20
-1544.016196326855
 30
0.0
  0
SEQEND
  8
0
  6
CONTINUOUS
 62
          30
  5
464
  0
POLYLINE
  8
0
  6
CONTINUOUS
 62
          30
  5
465
 66
           1
 10
0.0
 20
0.0
 30
0.0
 70
         128
1001
TCAD
1000
TCW_CUSTOM_DATA
1002
{
1000
#$AUX@_ToolInfo Properties
1070
           8
1000
Insert^JLine^JPolyline@Line Polyline
1002
}
  0
VERTEX
  8
0
  6
CONTINUOUS
 62
          30
  5
466
 10
-2805.622225664604
 20
-1559.690196412399
 30
0.0
  0
VERTEX
  8
0
  6
CONTINUOUS
 62
          30
  5
467
 10
-2776.801294570776
 20
-1569.453267794737
 30
0.0
  0
VERTEX
  8
0
  6
CONTINUOUS
 62
          30
  5
468
 10
-2776.574741879912
 20
-1579.988431744519
 30
0.0
  0
SEQEND
  8
0
  6
CONTINUOUS
 62
          30
  5
469
  0
LINE
  8
0
  6
CONTINUOUS
 62
          30
  5
46A
 10
-2805.622225664604
 20
-1559.690196412399
 30
0.0
 11
-2805.742560710643
 21
-1544.052091267136
 31
0.0
1001
TCAD
1000
TCW_CUSTOM_DATA
1002
{
1000
#$AUX@_ToolInfo Properties
1070
           8
1000
Insert^JLine^JSingle@Line Single
1002
}
  0
LINE
  8
0
  6
CONTINUOUS
 62
          30
  5
46B
 10
-2776.580586386103
 20
-1579.716650241047
 30
0.0
 11
-2748.732451467346
 21
-1570.863998196242
 31
0.0
1001
TCAD
1000
TCW_CUSTOM_DATA
1002
{
1000
#$AUX@_ToolInfo Properties
1070
           8
1000
Insert^JLine^JPolyline@Line Polyline
1002
}
  0
LINE
  8
0
  6
CONTINUOUS
 62
          30
  5
46C
 10
-2748.670186433657
 20
-1557.163030989142
 30
0.0
 11
-2742.670422262084
 21
-1557.071256261285
 31
0.0
  0
LINE
  8
0
  6
CONTINUOUS
 62
          30
  5
46D
 10
-2748.670186433657
 20
-1557.163030989142
 30
0.0
 11
-2748.680914737251
 21
-1552.988016335269
 31
0.0
  0
LINE
  8
0
  6
CONTINUOUS
 62
          30
  5
46E
 10
-2748.680914737251
 20
-1552.988016335269
 30
0.0
 11
-2748.737540634893
 21
-1542.119979460175
 31
0.0
  0
LINE
  8
0
  6
CONTINUOUS
 62
          30
  5
46F
 10
-2748.737540634893
 20
-1542.119979460175
 30
0.0
 11
-2748.757275090801
 21
-1539.773301370467
 31
0.0
  0
LINE
  8
0
  6
CONTINUOUS
 62
          30
  5
470
 10
-2742.649530409742
 20
-1570.863998196242
 30
0.0
 11
-2742.652945401001
 21
-1563.872532016035
 31
0.0
  0
LINE
  8
0
  6
CONTINUOUS
 62
          30
  5
471
 10
-2742.652945401001
 20
-1563.872532016035
 30
0.0
 11
-2742.670422262084
 21
-1557.071256261285
 31
0.0
  0
LINE
  8
0
  6
CONTINUOUS
 62
           1
  5
472
 10
-3243.751464848449
 20
-1396.029265414937
 30
0.0
 11
-3243.751464848449
 21
-1389.895384259718
 31
0.0
1001
TCAD
1000
TCW_CUSTOM_DATA
1002
{
1000
#$AUX@_ToolInfo Properties
1070
           8
1000
Insert^JLine^JSingle@Line Single
1002
}
  0
LINE
  8
0
  6
CONTINUOUS
 62
           1
  5
473
 10
-3222.023774060543
 20
-1396.170206226016
 30
0.0
 11
-3222.023774060543
 21
-1390.036325070797
 31
0.0
1001
TCAD
1000
TCW_CUSTOM_DATA
1002
{
1000
#$AUX@_ToolInfo Properties
1070
           8
1000
Insert^JLine^JSingle@Line Single
1002
}
  0
LINE
  8
0
  6
CONTINUOUS
 62
           1
  5
474
 10
-3172.546690722262
 20
-1396.918324781553
 30
0.0
 11
-3172.546690722262
 21
-1390.784443626335
 31
0.0
1001
TCAD
1000
TCW_CUSTOM_DATA
1002
{
1000
#$AUX@_ToolInfo Properties
1070
           8
1000
Insert^JLine^JSingle@Line Single
1002
}
  0
LINE
  8
0
  6
CONTINUOUS
 62
           1
  5
475
 10
-3150.05710738668
 20
-1397.506284631809
 30
0.0
 11
-3150.05710738668
 21
-1391.372403476591
 31
0.0
1001
TCAD
1000
TCW_CUSTOM_DATA
1002
{
1000
#$AUX@_ToolInfo Properties
1070
           8
1000
Insert^JLine^JSingle@Line Single
1002
}
  0
LINE
  8
0
  6
CONTINUOUS
 62
           1
  5
476
 10
-3094.230024047763
 20
-1399.87638075477
 30
0.0
 11
-3094.230024047763
 21
-1393.742499599552
 31
0.0
1001
TCAD
1000
TCW_CUSTOM_DATA
1002
{
1000
#$AUX@_ToolInfo Properties
1070
           8
1000
Insert^JLine^JSingle@Line Single
1002
}
  0
LINE
  8
0
  6
CONTINUOUS
 62
           1
  5
477
 10
-3071.777730468306
 20
-1401.252665741767
 30
0.0
 11
-3071.777730468306
 21
-1395.118784586549
 31
0.0
1001
TCAD
1000
TCW_CUSTOM_DATA
1002
{
1000
#$AUX@_ToolInfo Properties
1070
           8
1000
Insert^JLine^JSingle@Line Single
1002
}
  0
POLYLINE
  8
0
  6
CONTINUOUS
 62
           1
  5
478
 66
           1
 10
0.0
 20
0.0
 30
0.0
 70
         128
  0
VERTEX
  8
0
  6
CONTINUOUS
 62
           1
  5
479
 10
-3222.023774060543
 20
-1390.036325070797
 30
0.0
  0
VERTEX
  8
0
  6
CONTINUOUS
 62
           1
  5
47A
 10
-3240.401816138402
 20
-1389.901449679662
 30
0.0
  0
VERTEX
  8
0
  6
CONTINUOUS
 62
           1
  5
47B
 10
-3243.751464848449
 20
-1389.895384259718
 30
0.0
  0
SEQEND
  8
0
  6
CONTINUOUS
 62
           1
  5
47C
  0
POLYLINE
  8
0
  6
CONTINUOUS
 62
           1
  5
47D
 66
           1
 10
0.0
 20
0.0
 30
0.0
 70
         128
  0
VERTEX
  8
0
  6
CONTINUOUS
 62
           1
  5
47E
 10
-3071.777730468306
 20
-1395.118784586549
 30
0.0
  0
VERTEX
  8
0
  6
CONTINUOUS
 62
           1
  5
47F
 10
-3078.205005132067
 20
-1394.656315964217
 30
0.0
  0
VERTEX
  8
0
  6
CONTINUOUS
 62
           1
  5
480
 10
-3094.230024047763
 20
-1393.742499599552
 30
0.0
  0
SEQEND
  8
0
  6
CONTINUOUS
 62
           1
  5
481
  0
POLYLINE
  8
0
  6
CONTINUOUS
 62
           1
  5
482
 66
           1
 10
0.0
 20
0.0
 30
0.0
 70
         128
  0
VERTEX
  8
0
  6
CONTINUOUS
 62
           1
  5
483
 10
-3150.05710738668
 20
-1391.372403476591
 30
0.0
  0
VERTEX
  8
0
  6
CONTINUOUS
 62
           1
  5
484
 10
-3158.146236576206
 20
-1391.109880321525
 30
0.0
  0
VERTEX
  8
0
  6
CONTINUOUS
 62
           1
  5
485
 10
-3172.546690722262
 20
-1390.784443626335
 30
0.0
  0
SEQEND
  8
0
  6
CONTINUOUS
 62
           1
  5
486
  0
POLYLINE
  8
0
  6
CONTINUOUS
 62
           1
  5
487
 66
           1
 10
0.0
 20
0.0
 30
0.0
 70
         128
  0
VERTEX
  8
0
  6
CONTINUOUS
 62
           1
  5
488
 10
-3172.546690722262
 20
-1396.918324781553
 30
0.0
  0
VERTEX
  8
0
  6
CONTINUOUS
 62
           1
  5
489
 10
-3185.353771264631
 20
-1396.628896828485
 30
0.0
  0
VERTEX
  8
0
  6
CONTINUOUS
 62
           1
  5
48A
 10
-3212.783837275011
 20
-1396.238017589312
 30
0.0
  0
VERTEX
  8
0
  6
CONTINUOUS
 62
           1
  5
48B
 10
-3222.023774060543
 20
-1396.170206226016
 30
0.0
  0
SEQEND
  8
0
  6
CONTINUOUS
 62
           1
  5
48C
  0
POLYLINE
  8
0
  6
CONTINUOUS
 62
           1
  5
48D
 66
           1
 10
0.0
 20
0.0
 30
0.0
 70
         128
  0
VERTEX
  8
0
  6
CONTINUOUS
 62
           1
  5
48E
 10
-3094.230024047763
 20
-1399.87638075477
 30
0.0
  0
VERTEX
  8
0
  6
CONTINUOUS
 62
           1
  5
48F
 10
-3104.537235040981
 20
-1399.288618697875
 30
0.0
  0
VERTEX
  8
0
  6
CONTINUOUS
 62
           1
  5
490
 10
-3131.195851678675
 20
-1398.118404458425
 30
0.0
  0
VERTEX
  8
0
  6
CONTINUOUS
 62
           1
  5
491
 10
-3150.05710738668
 20
-1397.506284631809
 30
0.0
  0
SEQEND
  8
0
  6
CONTINUOUS
 62
           1
  5
492
  0
POLYLINE
  8
0
  6
CONTINUOUS
 62
           1
  5
493
 66
           1
 10
0.0
 20
0.0
 30
0.0
 70
         128
1001
TCAD
1000
TCW_CUSTOM_DATA
1002
{
1000
#$AUX@_ToolInfo Properties
1070
           8
1000
Insert^JLine^JPolyline@Line Polyline
1002
}
  0
VERTEX
  8
0
  6
CONTINUOUS
 62
           1
  5
494
 10
-3243.751464848449
 20
-1396.029265414937
 30
0.0
  0
VERTEX
  8
0
  6
CONTINUOUS
 62
           1
  5
495
 10
-3243.751464848449
 20
-1481.22368156406
 30
0.0
  0
VERTEX
  8
0
  6
CONTINUOUS
 62
           1
  5
496
 10
-3230.05049764135
 20
-1481.223681564061
 30
0.0
  0
VERTEX
  8
0
  6
CONTINUOUS
 62
           1
  5
497
 10
-3230.05049764135
 20
-1484.223681564061
 30
0.0
  0
SEQEND
  8
0
  6
CONTINUOUS
 62
           1
  5
498
  0
POLYLINE
  8
0
  6
CONTINUOUS
 62
           1
  5
499
 66
           1
 10
0.0
 20
0.0
 30
0.0
 70
         128
1001
TCAD
1000
TCW_CUSTOM_DATA
1002
{
1000
#$AUX@_ToolInfo Properties
1070
           8
1000
Insert^JLine^JPolyline@Line Polyline
1002
}
  0
VERTEX
  8
0
  6
CONTINUOUS
 62
           1
  5
49A
 10
-3071.777730468306
 20
-1401.252665741767
 30
0.0
  0
VERTEX
  8
0
  6
CONTINUOUS
 62
           1
  5
49B
 10
-3071.777730468306
 20
-1481.223681564061
 30
0.0
  0
VERTEX
  8
0
  6
CONTINUOUS
 62
           1
  5
49C
 10
-3087.681696731553
 20
-1481.223681564061
 30
0.0
  0
VERTEX
  8
0
  6
CONTINUOUS
 62
           1
  5
49D
 10
-3087.681696731553
 20
-1484.223681564061
 30
0.0
  0
SEQEND
  8
0
  6
CONTINUOUS
 62
           1
  5
49E
  0
LINE
  8
0
  6
CONTINUOUS
 62
           1
  5
49F
 10
-3243.751464848449
 20
-1572.418097713185
 30
0.0
 11
-3243.751464848449
 21
-1578.551978868403
 31
0.0
1001
TCAD
1000
TCW_CUSTOM_DATA
1002
{
1000
#$AUX@_ToolInfo Properties
1070
           8
1000
Insert^JLine^JSingle@Line Single
1002
}
  0
LINE
  8
0
  6
CONTINUOUS
 62
           1
  5
4A0
 10
-3222.023774060543
 20
-1572.277156902106
 30
0.0
 11
-3222.023774060543
 21
-1578.411038057324
 31
0.0
1001
TCAD
1000
TCW_CUSTOM_DATA
1002
{
1000
#$AUX@_ToolInfo Properties
1070
           8
1000
Insert^JLine^JSingle@Line Single
1002
}
  0
LINE
  8
0
  6
CONTINUOUS
 62
           1
  5
4A1
 10
-3172.546690722262
 20
-1571.529038346568
 30
0.0
 11
-3172.546690722262
 21
-1577.662919501786
 31
0.0
1001
TCAD
1000
TCW_CUSTOM_DATA
1002
{
1000
#$AUX@_ToolInfo Properties
1070
           8
1000
Insert^JLine^JSingle@Line Single
1002
}
  0
LINE
  8
0
  6
CONTINUOUS
 62
           1
  5
4A2
 10
-3150.05710738668
 20
-1570.941078496313
 30
0.0
 11
-3150.05710738668
 21
-1577.074959651531
 31
0.0
1001
TCAD
1000
TCW_CUSTOM_DATA
1002
{
1000
#$AUX@_ToolInfo Properties
1070
           8
1000
Insert^JLine^JSingle@Line Single
1002
}
  0
LINE
  8
0
  6
CONTINUOUS
 62
           1
  5
4A3
 10
-3094.230024047763
 20
-1568.570982373351
 30
0.0
 11
-3094.230024047763
 21
-1574.704863528569
 31
0.0
1001
TCAD
1000
TCW_CUSTOM_DATA
1002
{
1000
#$AUX@_ToolInfo Properties
1070
           8
1000
Insert^JLine^JSingle@Line Single
1002
}
  0
LINE
  8
0
  6
CONTINUOUS
 62
           1
  5
4A4
 10
-3071.777730468306
 20
-1567.194697386354
 30
0.0
 11
-3071.777730468306
 21
-1573.328578541572
 31
0.0
1001
TCAD
1000
TCW_CUSTOM_DATA
1002
{
1000
#$AUX@_ToolInfo Properties
1070
           8
1000
Insert^JLine^JSingle@Line Single
1002
}
  0
POLYLINE
  8
0
  6
CONTINUOUS
 62
           1
  5
4A5
 66
           1
 10
0.0
 20
0.0
 30
0.0
 70
         128
  0
VERTEX
  8
0
  6
CONTINUOUS
 62
           1
  5
4A6
 10
-3222.023774060543
 20
-1578.411038057324
 30
0.0
  0
VERTEX
  8
0
  6
CONTINUOUS
 62
           1
  5
4A7
 10
-3240.401816138402
 20
-1578.545913448459
 30
0.0
  0
VERTEX
  8
0
  6
CONTINUOUS
 62
           1
  5
4A8
 10
-3243.751464848449
 20
-1578.551978868403
 30
0.0
  0
SEQEND
  8
0
  6
CONTINUOUS
 62
           1
  5
4A9
  0
POLYLINE
  8
0
  6
CONTINUOUS
 62
           1
  5
4AA
 66
           1
 10
0.0
 20
0.0
 30
0.0
 70
         128
  0
VERTEX
  8
0
  6
CONTINUOUS
 62
           1
  5
4AB
 10
-3071.777730468306
 20
-1573.328578541572
 30
0.0
  0
VERTEX
  8
0
  6
CONTINUOUS
 62
           1
  5
4AC
 10
-3078.205005132067
 20
-1573.791047163904
 30
0.0
  0
VERTEX
  8
0
  6
CONTINUOUS
 62
           1
  5
4AD
 10
-3094.230024047763
 20
-1574.704863528569
 30
0.0
  0
SEQEND
  8
0
  6
CONTINUOUS
 62
           1
  5
4AE
  0
POLYLINE
  8
0
  6
CONTINUOUS
 62
           1
  5
4AF
 66
           1
 10
0.0
 20
0.0
 30
0.0
 70
         128
  0
VERTEX
  8
0
  6
CONTINUOUS
 62
           1
  5
4B0
 10
-3150.05710738668
 20
-1577.074959651531
 30
0.0
  0
VERTEX
  8
0
  6
CONTINUOUS
 62
           1
  5
4B1
 10
-3158.146236576206
 20
-1577.337482806596
 30
0.0
  0
VERTEX
  8
0
  6
CONTINUOUS
 62
           1
  5
4B2
 10
-3172.546690722262
 20
-1577.662919501786
 30
0.0
  0
SEQEND
  8
0
  6
CONTINUOUS
 62
           1
  5
4B3
  0
POLYLINE
  8
0
  6
CONTINUOUS
 62
           1
  5
4B4
 66
           1
 10
0.0
 20
0.0
 30
0.0
 70
         128
  0
VERTEX
  8
0
  6
CONTINUOUS
 62
           1
  5
4B5
 10
-3172.546690722262
 20
-1571.529038346568
 30
0.0
  0
VERTEX
  8
0
  6
CONTINUOUS
 62
           1
  5
4B6
 10
-3185.353771264631
 20
-1571.818466299636
 30
0.0
  0
VERTEX
  8
0
  6
CONTINUOUS
 62
           1
  5
4B7
 10
-3212.783837275011
 20
-1572.209345538809
 30
0.0
  0
VERTEX
  8
0
  6
CONTINUOUS
 62
           1
  5
4B8
 10
-3222.023774060543
 20
-1572.277156902106
 30
0.0
  0
SEQEND
  8
0
  6
CONTINUOUS
 62
           1
  5
4B9
  0
POLYLINE
  8
0
  6
CONTINUOUS
 62
           1
  5
4BA
 66
           1
 10
0.0
 20
0.0
 30
0.0
 70
         128
  0
VERTEX
  8
0
  6
CONTINUOUS
 62
           1
  5
4BB
 10
-3094.230024047763
 20
-1568.570982373351
 30
0.0
  0
VERTEX
  8
0
  6
CONTINUOUS
 62
           1
  5
4BC
 10
-3104.537235040981
 20
-1569.158744430246
 30
0.0
  0
VERTEX
  8
0
  6
CONTINUOUS
 62
           1
  5
4BD
 10
-3131.195851678675
 20
-1570.328958669696
 30
0.0
  0
VERTEX
  8
0
  6
CONTINUOUS
 62
           1
  5
4BE
 10
-3150.05710738668
 20
-1570.941078496313
 30
0.0
  0
SEQEND
  8
0
  6
CONTINUOUS
 62
           1
  5
4BF
  0
POLYLINE
  8
0
  6
CONTINUOUS
 62
           1
  5
4C0
 66
           1
 10
0.0
 20
0.0
 30
0.0
 70
         128
1001
TCAD
1000
TCW_CUSTOM_DATA
1002
{
1000
#$AUX@_ToolInfo Properties
1070
           8
1000
Insert^JLine^JPolyline@Line Polyline
1002
}
  0
VERTEX
  8
0
  6
CONTINUOUS
 62
           1
  5
4C1
 10
-3243.751464848449
 20
-1572.418097713185
 30
0.0
  0
VERTEX
  8
0
  6
CONTINUOUS
 62
           1
  5
4C2
 10
-3243.751464848449
 20
-1487.223681564061
 30
0.0
  0
VERTEX
  8
0
  6
CONTINUOUS
 62
           1
  5
4C3
 10
-3230.05049764135
 20
-1487.223681564061
 30
0.0
  0
VERTEX
  8
0
  6
CONTINUOUS
 62
           1
  5
4C4
 10
-3230.05049764135
 20
-1484.223681564061
 30
0.0
  0
SEQEND
  8
0
  6
CONTINUOUS
 62
           1
  5
4C5
  0
POLYLINE
  8
0
  6
CONTINUOUS
 62
           1
  5
4C6
 66
           1
 10
0.0
 20
0.0
 30
0.0
 70
         128
1001
TCAD
1000
TCW_CUSTOM_DATA
1002
{
1000
#$AUX@_ToolInfo Properties
1070
           8
1000
Insert^JLine^JPolyline@Line Polyline
1002
}
  0
VERTEX
  8
0
  6
CONTINUOUS
 62
           1
  5
4C7
 10
-3071.777730468306
 20
-1567.194697386354
 30
0.0
  0
VERTEX
  8
0
  6
CONTINUOUS
 62
           1
  5
4C8
 10
-3071.777730468306
 20
-1487.223681564061
 30
0.0
  0
VERTEX
  8
0
  6
CONTINUOUS
 62
           1
  5
4C9
 10
-3087.681696731553
 20
-1487.22368156406
 30
0.0
  0
VERTEX
  8
0
  6
CONTINUOUS
 62
           1
  5
4CA
 10
-3087.681696731553
 20
-1484.223681564061
 30
0.0
  0
SEQEND
  8
0
  6
CONTINUOUS
 62
           1
  5
4CB
  0
LINE
  8
0
  6
CONTINUOUS
 62
          93
  5
4CC
 10
-2676.355555491612
 20
-1292.726182350374
 30
0.0
 11
-2676.355555491612
 21
-1290.190850210739
 31
0.0
  0
LINE
  8
0
  6
CONTINUOUS
 62
          93
  5
4CD
 10
-2676.355555491612
 20
-1290.190850210739
 30
0.0
 11
-2658.90650488353
 21
-1290.190850210739
 31
0.0
  0
LINE
  8
0
  6
CONTINUOUS
 62
          93
  5
4CE
 10
-2685.217721888621
 20
-1249.383775026943
 30
0.0
 11
-2855.916725835513
 21
-1182.961214433092
 31
0.0
  0
POLYLINE
  8
0
  6
CONTINUOUS
 62
          93
  5
4CF
 66
           1
 10
0.0
 20
0.0
 30
0.0
 70
         128
1001
TCAD
1000
TCW_CUSTOM_DATA
1002
{
1000
#$AUX@_ToolInfo Properties
1070
           8
1000
Modify^JFillet@Fillet
1002
}
  0
VERTEX
  8
0
  6
CONTINUOUS
 62
          93
  5
4D0
 10
-2855.916725835544
 20
-1182.96121443306
 30
0.0
  0
VERTEX
  8
0
  6
CONTINUOUS
 62
          93
  5
4D1
 10
-3117.456549086647
 20
-1080.939068509743
 30
0.0
 42
0.046042813824
  0
VERTEX
  8
0
  6
CONTINUOUS
 62
          93
  5
4D2
 10
-3117.986436289003
 20
-1080.78675040937
 30
0.0
  0
VERTEX
  8
0
  6
CONTINUOUS
 62
          93
  5
4D3
 10
-3125.746286992417
 20
-1079.311377109693
 30
0.0
 42
0.106870326901
  0
VERTEX
  8
0
  6
CONTINUOUS
 62
          93
  5
4D4
 10
-3127.01385150628
 20
-1079.343131076913
 30
0.0
  0
VERTEX
  8
0
  6
CONTINUOUS
 62
          93
  5
4D5
 10
-3135.95353574648
 20
-1081.511675639544
 30
0.0
  0
SEQEND
  8
0
  6
CONTINUOUS
 62
          93
  5
4D6
  0
LINE
  8
0
  6
CONTINUOUS
 62
          93
  5
4D7
 10
-3135.95353574648
 20
-1081.511675639544
 30
0.0
 11
-3150.997889603758
 21
-1087.364325955872
 31
0.0
  0
LINE
  8
0
  6
CONTINUOUS
 62
          93
  5
4D8
 10
-3150.997889603758
 20
-1087.364325955872
 30
0.0
 11
-3173.258144742207
 21
-1099.18797465864
 31
0.0
  0
LINE
  8
0
  6
CONTINUOUS
 62
          93
  5
4D9
 10
-3173.258144742207
 20
-1099.18797465864
 30
0.0
 11
-3188.628827211695
 21
-1109.712243847958
 31
0.0
  0
LINE
  8
0
  6
CONTINUOUS
 62
          93
  5
4DA
 10
-3188.119804683809
 20
-1287.580949479483
 30
0.0
 11
-3205.270580922523
 21
-1294.292122790284
 31
0.0
  0
LINE
  8
0
  6
CONTINUOUS
 62
          93
  5
4DB
 10
-3205.270580922523
 20
-1294.292122790284
 30
0.0
 11
-3205.270580922523
 21
-1315.618740200163
 31
0.0
  0
LINE
  8
0
  6
CONTINUOUS
 62
          93
  5
4DC
 10
-3205.270580922523
 20
-1315.618740200163
 30
0.0
 11
-3231.518725426989
 21
-1315.618740200163
 31
0.0
  0
LINE
  8
0
  6
CONTINUOUS
 62
          93
  5
4DD
 10
-3231.518725426989
 20
-1315.618740200163
 30
0.0
 11
-3235.247155044101
 21
-1316.364426123585
 31
0.0
  0
LINE
  8
0
  6
CONTINUOUS
 62
          93
  5
4DE
 10
-3235.247155044101
 20
-1316.364426123585
 30
0.0
 11
-3236.253831045045
 21
-1320.63347802744
 31
0.0
  0
LINE
  8
0
  6
CONTINUOUS
 62
          93
  5
4DF
 10
-3236.253831045045
 20
-1320.63347802744
 30
0.0
 11
-3240.504240805805
 21
-1320.63347802744
 31
0.0
  0
LINE
  8
0
  6
CONTINUOUS
 62
          93
  5
4E0
 10
-3240.504240805805
 20
-1320.63347802744
 30
0.0
 11
-3240.504240805805
 21
-1329.19022400211
 31
0.0
  0
LINE
  8
0
  6
CONTINUOUS
 62
          93
  5
4E1
 10
-3188.628827211695
 20
-1109.712243847958
 30
0.0
 11
-3030.747884193205
 21
-1226.083473906261
 31
0.0
  0
LINE
  8
0
  6
CONTINUOUS
 62
          93
  5
4E2
 10
-3030.747884193205
 20
-1226.083473906261
 30
0.0
 11
-3044.127852889264
 21
-1225.167037694202
 31
0.0
  0
POLYLINE
  8
0
  6
CONTINUOUS
 62
          93
  5
4E3
 66
           1
 10
0.0
 20
0.0
 30
0.0
 70
         128
1001
TCAD
1000
TCW_CUSTOM_DATA
1002
{
1000
#$AUX@_ToolInfo Properties
1070
           8
1000
Insert^JLine^JPolyline@Line Polyline
1002
}
  0
VERTEX
  8
0
  6
CONTINUOUS
 62
          93
  5
4E4
 10
-3188.119804683809
 20
-1287.580949479483
 30
0.0
  0
VERTEX
  8
0
  6
CONTINUOUS
 62
          93
  5
4E5
 10
-3165.730129838818
 20
-1287.580949479483
 30
0.0
  0
VERTEX
  8
0
  6
CONTINUOUS
 62
          93
  5
4E6
 10
-3165.730129838818
 20
-1131.180655153978
 30
0.0
  0
SEQEND
  8
0
  6
CONTINUOUS
 62
          93
  5
4E7
  0
LINE
  8
0
  6
CONTINUOUS
 62
          93
  5
4E8
 10
-2963.104252951313
 20
-1326.190224002112
 30
0.0
 11
-2938.926864139946
 21
-1326.190224002112
 31
0.0
  0
LINE
  8
0
  6
CONTINUOUS
 62
          93
  5
4E9
 10
-2685.217721888621
 20
-1249.383775026943
 30
0.0
 11
-2686.06128780874
 21
-1255.408795842878
 31
0.0
1001
TCAD
1000
TCW_CUSTOM_DATA
1002
{
1000
#$AUX@_ToolInfo Properties
1070
           8
1000
Insert^JLine^JSingle@Line Single
1002
}
  0
LINE
  8
0
  6
CONTINUOUS
 62
          93
  5
4EA
 10
-2842.113610303425
 20
-1236.799747959098
 30
0.0
 11
-2842.31246873998
 21
-1242.927175398106
 31
0.0
1001
TCAD
1000
TCW_CUSTOM_DATA
1002
{
1000
#$AUX@_ToolInfo Properties
1070
           8
1000
Insert^JLine^JSingle@Line Single
1002
}
  0
LINE
  8
0
  6
CONTINUOUS
 62
          93
  5
4EB
 10
-2810.733952909034
 20
-1238.124614997829
 30
0.0
 11
-2811.002656043161
 21
-1244.245933300515
 31
0.0
1001
TCAD
1000
TCW_CUSTOM_DATA
1002
{
1000
#$AUX@_ToolInfo Properties
1070
           8
1000
Insert^JLine^JSingle@Line Single
1002
}
  0
LINE
  8
0
  6
CONTINUOUS
 62
          93
  5
4EC
 10
-3129.042007324265
 20
-1235.658504419307
 30
0.0
 11
-3129.042007324265
 21
-1241.792385574525
 31
0.0
1001
TCAD
1000
TCW_CUSTOM_DATA
1002
{
1000
#$AUX@_ToolInfo Properties
1070
           8
1000
Insert^JLine^JSingle@Line Single
1002
}
  0
LINE
  8
0
  6
CONTINUOUS
 62
          93
  5
4ED
 10
-3100.394852530663
 20
-1235.512299171605
 30
0.0
 11
-3100.394852530663
 21
-1241.646180326823
 31
0.0
1001
TCAD
1000
TCW_CUSTOM_DATA
1002
{
1000
#$AUX@_ToolInfo Properties
1070
           8
1000
Insert^JLine^JSingle@Line Single
1002
}
  0
POLYLINE
  8
0
  6
CONTINUOUS
 62
          93
  5
4EE
 66
           1
 10
0.0
 20
0.0
 30
0.0
 70
         128
  0
VERTEX
  8
0
  6
CONTINUOUS
 62
          93
  5
4EF
 10
-2658.90650488353
 20
-1259.487846748893
 30
0.0
  0
VERTEX
  8
0
  6
CONTINUOUS
 62
          93
  5
4F0
 10
-2683.087524114427
 20
-1255.792553551658
 30
0.0
  0
VERTEX
  8
0
  6
CONTINUOUS
 62
          93
  5
4F1
 10
-2686.06128780874
 20
-1255.408795842878
 30
0.0
  0
SEQEND
  8
0
  6
CONTINUOUS
 62
          93
  5
4F2
  0
POLYLINE
  8
0
  6
CONTINUOUS
 62
          93
  5
4F3
 66
           1
 10
0.0
 20
0.0
 30
0.0
 70
         128
  0
VERTEX
  8
0
  6
CONTINUOUS
 62
          93
  5
4F4
 10
-2811.002656043161
 20
-1244.245933300515
 30
0.0
  0
VERTEX
  8
0
  6
CONTINUOUS
 62
          93
  5
4F5
 10
-2837.45105363008
 20
-1243.084946896476
 30
0.0
  0
VERTEX
  8
0
  6
CONTINUOUS
 62
          93
  5
4F6
 10
-2842.31246873998
 20
-1242.927175398106
 30
0.0
  0
SEQEND
  8
0
  6
CONTINUOUS
 62
          93
  5
4F7
  0
POLYLINE
  8
0
  6
CONTINUOUS
 62
          93
  5
4F8
 66
           1
 10
0.0
 20
0.0
 30
0.0
 70
         128
  0
VERTEX
  8
0
  6
CONTINUOUS
 62
          93
  5
4F9
 10
-3100.394852530663
 20
-1241.646180326823
 30
0.0
  0
VERTEX
  8
0
  6
CONTINUOUS
 62
          93
  5
4FA
 10
-3114.372426922666
 20
-1241.733391162775
 30
0.0
  0
VERTEX
  8
0
  6
CONTINUOUS
 62
          93
  5
4FB
 10
-3129.042007324265
 20
-1241.792385574525
 30
0.0
  0
SEQEND
  8
0
  6
CONTINUOUS
 62
          93
  5
4FC
  0
POLYLINE
  8
0
  6
CONTINUOUS
 62
          93
  5
4FD
 66
           1
 10
0.0
 20
0.0
 30
0.0
 70
         128
  0
VERTEX
  8
0
  6
CONTINUOUS
 62
          93
  5
4FE
 10
-2810.733952909034
 20
-1238.124614997828
 30
0.0
  0
VERTEX
  8
0
  6
CONTINUOUS
 62
          93
  5
4FF
 10
-2810.792436992385
 20
-1238.121279980708
 30
0.0
  0
VERTEX
  8
0
  6
CONTINUOUS
 62
          93
  5
500
 10
-2837.45105363008
 20
-1236.951065741258
 30
0.0
  0
VERTEX
  8
0
  6
CONTINUOUS
 62
          93
  5
501
 10
-2842.113610303425
 20
-1236.799747959098
 30
0.0
  0
SEQEND
  8
0
  6
CONTINUOUS
 62
          93
  5
502
  0
LINE
  8
0
  6
CONTINUOUS
 62
          93
  5
503
 10
-2658.90650488353
 20
-1290.190850210739
 30
0.0
 11
-2658.90650488353
 21
-1259.487846748893
 31
0.0
  0
POLYLINE
  8
0
  6
CONTINUOUS
 62
          93
  5
504
 66
           1
 10
0.0
 20
0.0
 30
0.0
 70
         128
  0
VERTEX
  8
0
  6
CONTINUOUS
 62
          93
  5
505
 10
-3100.394852530663
 20
-1235.512299171605
 30
0.0
  0
VERTEX
  8
0
  6
CONTINUOUS
 62
          93
  5
506
 10
-3114.372426922666
 20
-1235.599510007557
 30
0.0
  0
VERTEX
  8
0
  6
CONTINUOUS
 62
          93
  5
507
 10
-3129.042007324265
 20
-1235.658504419307
 30
0.0
  0
SEQEND
  8
0
  6
CONTINUOUS
 62
          93
  5
508
  0
POLYLINE
  8
0
  6
CONTINUOUS
 62
          93
  5
509
 66
           1
 10
0.0
 20
0.0
 30
0.0
 70
         128
1001
TCAD
1000
TCW_CUSTOM_DATA
1002
{
1000
#$AUX@_ToolInfo Properties
1070
           8
1000
Insert^JLine^JRectangle@Line Rectangle
1002
}
  0
VERTEX
  8
0
  6
CONTINUOUS
 62
          93
  5
50A
 10
-2716.424951066773
 20
-1329.190224002111
 30
0.0
  0
VERTEX
  8
0
  6
CONTINUOUS
 62
          93
  5
50B
 10
-2716.424951066773
 20
-1326.190224002112
 30
0.0
  0
VERTEX
  8
0
  6
CONTINUOUS
 62
          93
  5
50C
 10
-2666.9769764519
 20
-1326.190224002112
 30
0.0
  0
VERTEX
  8
0
  6
CONTINUOUS
 62
          93
  5
50D
 10
-2666.9769764519
 20
-1329.190224002111
 30
0.0
  0
SEQEND
  8
0
  6
CONTINUOUS
 62
          93
  5
50E
  0
LINE
  8
0
  6
CONTINUOUS
 62
          93
  5
50F
 10
-2938.926864139946
 20
-1326.190224002112
 30
0.0
 11
-2938.926864139946
 21
-1329.190224002111
 31
0.0
  0
LINE
  8
0
  6
CONTINUOUS
 62
          93
  5
510
 10
-2963.104252951313
 20
-1326.190224002112
 30
0.0
 11
-2963.104252951313
 21
-1329.190224002111
 31
0.0
1001
TCAD
1000
TCW_CUSTOM_DATA
1002
{
1000
#$AUX@_ToolInfo Properties
1070
           8
1000
Insert^JLine^JSingle@Line Single
1002
}
  0
LINE
  8
0
  6
CONTINUOUS
 62
          93
  5
511
 10
-3240.504240805805
 20
-1329.19022400211
 30
0.0
 11
-2963.104252951313
 21
-1329.190224002111
 31
0.0
1001
TCAD
1000
TCW_CUSTOM_DATA
1002
{
1000
#$AUX@_ToolInfo Properties
1070
           8
1000
Insert^JLine^JSingle@Line Single
1002
}
  0
LINE
  8
0
  6
CONTINUOUS
 62
          93
  5
512
 10
-2938.926864139946
 20
-1329.190224002111
 30
0.0
 11
-2716.424951066773
 21
-1329.190224002111
 31
0.0
1001
TCAD
1000
TCW_CUSTOM_DATA
1002
{
1000
#$AUX@_ToolInfo Properties
1070
           8
1000
Insert^JLine^JSingle@Line Single
1002
}
  0
POLYLINE
  8
0
  6
CONTINUOUS
 62
          93
  5
513
 66
           1
 10
0.0
 20
0.0
 30
0.0
 70
         128
1001
TCAD
1000
TCW_CUSTOM_DATA
1002
{
1000
#$AUX@_ToolInfo Properties
1070
           8
1000
Insert^JLine^JPolyline@Line Polyline
1002
}
  0
VERTEX
  8
0
  6
CONTINUOUS
 62
          93
  5
514
 10
-2676.355555491612
 20
-1292.726182350374
 30
0.0
  0
VERTEX
  8
0
  6
CONTINUOUS
 62
          93
  5
515
 10
-2676.355555491612
 20
-1305.278016354832
 30
0.0
  0
VERTEX
  8
0
  6
CONTINUOUS
 62
          93
  5
516
 10
-2648.142909943696
 20
-1310.305099688668
 30
0.0
  0
VERTEX
  8
0
  6
CONTINUOUS
 62
          93
  5
517
 10
-2648.142909943696
 20
-1329.190224002111
 30
0.0
  0
SEQEND
  8
0
  6
CONTINUOUS
 62
          93
  5
518
  0
LINE
  8
0
  6
CONTINUOUS
 62
          93
  5
519
 10
-2666.9769764519
 20
-1329.190224002111
 30
0.0
 11
-2648.142909943696
 21
-1329.190224002111
 31
0.0
1001
TCAD
1000
TCW_CUSTOM_DATA
1002
{
1000
#$AUX@_ToolInfo Properties
1070
           8
1000
Insert^JLine^JSingle@Line Single
1002
}
  0
LINE
  8
0
  6
CONTINUOUS
 62
          93
  5
51A
 10
-3044.127852889264
 20
-1225.167037694202
 30
0.0
 11
-3165.730129838818
 21
-1131.180655153978
 31
0.0
  0
INSERT
  8
0
  6
CONTINUOUS
 62
           5
  5
535
  2
*E12
 10
0.0
 20
0.0
 30
0.0
1001
TCAD
1000
TCW_REFPOINT
1002
{
1010
-2699.752758492611
1020
-1040.950220808538
1030
0.0
1002
}
1000
TCW_CUSTOM_DATA
1002
{
1000
#$AUX@_ToolInfo Properties
1070
           8
1000
Insert^JCurve^JBezier@Curve Bezier
1002
}
1000
TC25ExternalObject
1002
{
1000
TCW30CURVE
1000

1070
           0
1071
 16711680
1040
1.0
1040
0.0
1000
Continuous
1000
0
1070
          18
1010
-2699.752758492611
1020
-1040.950220808538
1030
0.0
1071
        4
1071
      162
1010
-2699.752758492611
1020
-1040.950220808538
1030
0.0
1071
     6274
1010
-2682.438448425267
1020
-1041.472635330108
1030
0.0
1071
     6274
1010
-2666.616751279023
1020
-1044.756383794423
1030
0.0
1071
      162
1010
-2650.795054132779
1020
-1048.040132258738
1030
0.0
1070
           3
1071
-2147483643
1070
           1
1000
#$AUX@_ToolInfo Properties
1070
           8
1000
Insert^JCurve^JBezier@Curve Bezier
1000
$SPLINESEGS
1070
          18
1070
          20
1000
$SPLFRAME
1070
          18
1070
           0
1000
$SPLINETYPE
1070
          18
1070
           1
1000
$SHOWCONTRPTS
1070
          18
1070
           1
1000
$CURVESMOOTH
1070
          18
1070
           1
1002
}
  0
LINE
  8
0
  6
CONTINUOUS
 62
           5
  5
536
 10
-2650.795054132779
 20
-1048.040132258738
 30
0.0
 11
-2650.795054132779
 21
-1090.9738658447
 31
0.0
1001
TCAD
1000
TCW_CUSTOM_DATA
1002
{
1000
#$AUX@_ToolInfo Properties
1070
           8
1000
Insert^JLine^JPolyline@Line Polyline
1002
}
  0
INSERT
  8
0
  6
CONTINUOUS
 62
           5
  5
551
  2
*E13
 10
0.0
 20
0.0
 30
0.0
1001
TCAD
1000
TCW_CUSTOM_DATA
1002
{
1000
#$AUX@_ToolInfo Properties
1070
           8
1000
Insert^JCurve^JBezier@Curve Bezier
1002
}
1000
TC25ExternalObject
1002
{
1000
TCW30CURVE
1000

1070
           0
1071
 16711680
1040
1.0
1040
0.0
1000
Continuous
1000
0
1071
        4
1071
      162
1010
-2699.937959850346
1020
-1098.366654828034
1030
0.0
1071
     6274
1010
-2679.410921054452
1020
-1096.423116337333
1030
0.0
1071
     6274
1010
-2666.524708188747
1020
-1094.194353599759
1030
0.0
1071
      162
1010
-2650.795054132779
1020
-1090.9738658447
1030
0.0
1070
           3
1071
-2147483643
1070
           1
1000
#$AUX@_ToolInfo Properties
1070
           8
1000
Insert^JCurve^JBezier@Curve Bezier
1000
$SPLINESEGS
1070
          18
1070
          20
1000
$SPLFRAME
1070
          18
1070
           0
1000
$SPLINETYPE
1070
          18
1070
           1
1000
$SHOWCONTRPTS
1070
          18
1070
           1
1000
$CURVESMOOTH
1070
          18
1070
           1
1002
}
  0
POLYLINE
  8
0
  6
CONTINUOUS
 62
           5
  5
552
 66
           1
 10
0.0
 20
0.0
 30
0.0
 70
         128
1001
TCAD
1000
TCW_CUSTOM_DATA
1002
{
1000
#$AUX@_ToolInfo Properties
1070
           8
1000
Insert^JLine^JPolyline@Line Polyline
1002
}
  0
VERTEX
  8
0
  6
CONTINUOUS
 62
           5
  5
553
 10
-2699.937959850346
 20
-1098.366654828034
 30
0.0
  0
VERTEX
  8
0
  6
CONTINUOUS
 62
           5
  5
554
 10
-2700.236482438011
 20
-1104.038583993668
 30
0.0
  0
VERTEX
  8
0
  6
CONTINUOUS
 62
           5
  5
555
 10
-2815.332344310838
 20
-1120.609014735359
 30
0.0
  0
VERTEX
  8
0
  6
CONTINUOUS
 62
           5
  5
556
 10
-2830.942760977637
 20
-1101.42672307753
 30
0.0
  0
SEQEND
  8
0
  6
CONTINUOUS
 62
           5
  5
557
  0
POLYLINE
  8
0
  6
CONTINUOUS
 62
           5
  5
558
 66
           1
 10
0.0
 20
0.0
 30
0.0
 70
         128
1001
TCAD
1000
TCW_CUSTOM_DATA
1002
{
1000
#$AUX@_ToolInfo Properties
1070
           8
1000
Insert^JLine^JSingle@Line Single
1002
}
  0
VERTEX
  8
0
  6
CONTINUOUS
 62
           5
  5
559
 10
-3052.791658450287
 20
-1079.485101156037
 30
0.0
  0
VERTEX
  8
0
  6
CONTINUOUS
 62
           5
  5
55A
 10
-3053.325052645416
 20
-1072.984014732764
 30
0.0
  0
VERTEX
  8
0
  6
CONTINUOUS
 62
           5
  5
55B
 10
-3169.888260933347
 20
-1036.883934554196
 30
0.0
  0
SEQEND
  8
0
  6
CONTINUOUS
 62
           5
  5
55C
  0
LINE
  8
0
  6
CONTINUOUS
 62
           5
  5
55D
 10
-2878.788099017022
 20
-1095.42672307753
 30
0.0
 11
-2878.788099017022
 21
-1101.510419862696
 31
0.0
1001
TCAD
1000
TCW_CUSTOM_DATA
1002
{
1000
#$AUX@_ToolInfo Properties
1070
           8
1000
Insert^JLine^JSingle@Line Single
1002
}
  0
LINE
  8
0
  6
CONTINUOUS
 62
           5
  5
55E
 10
-3169.888260933347
 20
-1036.883934554196
 30
0.0
 11
-3170.323722600115
 21
-1030.894171802944
 31
0.0
1001
TCAD
1000
TCW_CUSTOM_DATA
1002
{
1000
#$AUX@_ToolInfo Properties
1070
           8
1000
Insert^JLine^JPolyline@Line Polyline
1002
}
  0
LINE
  8
0
  6
CONTINUOUS
 62
           5
  5
55F
 10
-3143.155260968197
 20
-1030.442378517148
 30
0.0
 11
-3142.936584465699
 21
-1036.440786343965
 31
0.0
1001
TCAD
1000
TCW_CUSTOM_DATA
1002
{
1000
#$AUX@_ToolInfo Properties
1070
           8
1000
Insert^JLine^JPolyline@Line Polyline
1002
}
  0
POLYLINE
  8
0
  6
CONTINUOUS
 62
           5
  5
560
 66
           1
 10
0.0
 20
0.0
 30
0.0
 70
         128
1001
TCAD
1000
TCW_CUSTOM_DATA
1002
{
1000
#$AUX@_ToolInfo Properties
1070
           8
1000
Insert^JLine^JPolyline@Line Polyline
1002
}
  0
VERTEX
  8
0
  6
CONTINUOUS
 62
           5
  5
561
 10
-2699.752758492611
 20
-1040.950220808538
 30
0.0
  0
VERTEX
  8
0
  6
CONTINUOUS
 62
           5
  5
562
 10
-2706.043939218997
 20
-1054.366716850852
 30
0.0
  0
VERTEX
  8
0
  6
CONTINUOUS
 62
           5
  5
563
 10
-2721.125189220504
 20
-1054.366716850852
 30
0.0
  0
VERTEX
  8
0
  6
CONTINUOUS
 62
           5
  5
564
 10
-2728.399913286214
 20
-1040.587240636199
 30
0.0
  0
SEQEND
  8
0
  6
CONTINUOUS
 62
           5
  5
565
  0
POLYLINE
  8
0
  6
CONTINUOUS
 62
           5
  5
566
 66
           1
 10
0.0
 20
0.0
 30
0.0
 70
         128
1001
TCAD
1000
TCW_REFPOINT
1002
{
1010
-3018.002328824491
1020
-1036.911896299298
1030
0.0
1002
}
1000
TCW_CUSTOM_DATA
1002
{
1000
#$AUX@_ToolInfo Properties
1070
           8
1000
Insert^JLine^JPolyline@Line Polyline
1002
}
  0
VERTEX
  8
0
  6
CONTINUOUS
 62
           5
  5
567
 10
-3018.002328824491
 20
-1036.911896299298
 30
0.0
  0
VERTEX
  8
0
  6
CONTINUOUS
 62
           5
  5
568
 10
-3018.002328824491
 20
-1030.911415548104
 30
0.0
  0
VERTEX
  8
0
  6
CONTINUOUS
 62
           5
  5
569
 10
-2986.666879689567
 20
-1031.309237596461
 30
0.0
  0
VERTEX
  8
0
  6
CONTINUOUS
 62
           5
  5
56A
 10
-2986.666879689567
 20
-1037.316480620621
 30
0.0
  0
SEQEND
  8
0
  6
CONTINUOUS
 62
           5
  5
56B
  0
LINE
  8
0
  6
CONTINUOUS
 62
           5
  5
56C
 10
-2900.515789804929
 20
-1095.458191190086
 30
0.0
 11
-2900.515789804929
 21
-1101.458191190086
 31
0.0
1001
TCAD
1000
TCW_CUSTOM_DATA
1002
{
1000
#$AUX@_ToolInfo Properties
1070
           8
1000
Insert^JLine^JSingle@Line Single
1002
}
  0
LINE
  8
0
  6
CONTINUOUS
 62
           5
  5
56D
 10
-2949.99287314321
 20
-1094.808372643568
 30
0.0
 11
-2949.99287314321
 21
-1100.808372643568
 31
0.0
1001
TCAD
1000
TCW_CUSTOM_DATA
1002
{
1000
#$AUX@_ToolInfo Properties
1070
           8
1000
Insert^JLine^JSingle@Line Single
1002
}
  0
LINE
  8
0
  6
CONTINUOUS
 62
           5
  5
56E
 10
-2972.482456478792
 20
-1094.149144815747
 30
0.0
 11
-2972.482456478792
 21
-1100.149144815747
 31
0.0
1001
TCAD
1000
TCW_CUSTOM_DATA
1002
{
1000
#$AUX@_ToolInfo Properties
1070
           8
1000
Insert^JLine^JSingle@Line Single
1002
}
  0
LINE
  8
0
  6
CONTINUOUS
 62
           5
  5
56F
 10
-3050.761833397166
 20
-1089.229181572767
 30
0.0
 11
-3052.791658450287
 21
-1079.485101156037
 31
0.0
1001
TCAD
1000
TCW_CUSTOM_DATA
1002
{
1000
#$AUX@_ToolInfo Properties
1070
           8
1000
Insert^JLine^JSingle@Line Single
1002
}
  0
LINE
  8
0
  6
CONTINUOUS
 62
           5
  5
570
 10
-3028.309539817708
 20
-1091.112423967795
 30
0.0
 11
-3028.309539817708
 21
-1097.032543731974
 31
0.0
1001
TCAD
1000
TCW_CUSTOM_DATA
1002
{
1000
#$AUX@_ToolInfo Properties
1070
           8
1000
Insert^JLine^JSingle@Line Single
1002
}
  0
POLYLINE
  8
0
  6
CONTINUOUS
 62
           5
  5
571
 66
           1
 10
0.0
 20
0.0
 30
0.0
 70
         128
  0
VERTEX
  8
0
  6
CONTINUOUS
 62
           5
  5
572
 10
-3028.309539817708
 20
-1091.112423967795
 30
0.0
  0
VERTEX
  8
0
  6
CONTINUOUS
 62
           5
  5
573
 10
-3038.400468210981
 20
-1090.317756347453
 30
0.0
  0
VERTEX
  8
0
  6
CONTINUOUS
 62
           5
  5
574
 10
-3050.761833397166
 20
-1089.229181572767
 30
0.0
  0
SEQEND
  8
0
  6
CONTINUOUS
 62
           5
  5
575
  0
POLYLINE
  8
0
  6
CONTINUOUS
 62
           5
  5
576
 66
           1
 10
0.0
 20
0.0
 30
0.0
 70
         128
  0
VERTEX
  8
0
  6
CONTINUOUS
 62
           5
  5
577
 10
-2972.482456478792
 20
-1100.061127689
 30
0.0
  0
VERTEX
  8
0
  6
CONTINUOUS
 62
           5
  5
578
 10
-2974.172089435602
 20
-1100.003033657676
 30
0.0
  0
VERTEX
  8
0
  6
CONTINUOUS
 62
           5
  5
579
 10
-2985.434496525791
 20
-1099.542492939368
 30
0.0
  0
VERTEX
  8
0
  6
CONTINUOUS
 62
           5
  5
57A
 10
-2996.776359976879
 20
-1098.999819515397
 30
0.0
  0
VERTEX
  8
0
  6
CONTINUOUS
 62
           5
  5
57B
 10
-3008.206577734204
 20
-1098.368616163133
 30
0.0
  0
VERTEX
  8
0
  6
CONTINUOUS
 62
           5
  5
57C
 10
-3019.734047743099
 20
-1097.642485659945
 30
0.0
  0
VERTEX
  8
0
  6
CONTINUOUS
 62
           5
  5
57D
 10
-3028.309539817708
 20
-1097.032543731974
 30
0.0
  0
SEQEND
  8
0
  6
CONTINUOUS
 62
           5
  5
57E
  0
POLYLINE
  8
0
  6
CONTINUOUS
 62
           5
  5
57F
 66
           1
 10
0.0
 20
0.0
 30
0.0
 70
         128
  0
VERTEX
  8
0
  6
CONTINUOUS
 62
           5
  5
580
 10
-2878.788099017022
 20
-1095.509644135133
 30
0.0
  0
VERTEX
  8
0
  6
CONTINUOUS
 62
           5
  5
581
 10
-2885.77956519723
 20
-1095.506229143874
 30
0.0
  0
VERTEX
  8
0
  6
CONTINUOUS
 62
           5
  5
582
 10
-2896.664080877994
 20
-1095.478259807625
 30
0.0
  0
VERTEX
  8
0
  6
CONTINUOUS
 62
           5
  5
583
 10
-2900.515789804929
 20
-1095.458191190086
 30
0.0
  0
SEQEND
  8
0
  6
CONTINUOUS
 62
           5
  5
584
  0
POLYLINE
  8
0
  6
CONTINUOUS
 62
           5
  5
585
 66
           1
 10
0.0
 20
0.0
 30
0.0
 70
         128
  0
VERTEX
  8
0
  6
CONTINUOUS
 62
           5
  5
586
 10
-2949.99287314321
 20
-1094.808372643568
 30
0.0
  0
VERTEX
  8
0
  6
CONTINUOUS
 62
           5
  5
587
 10
-2950.934930757137
 20
-1094.788281463614
 30
0.0
  0
VERTEX
  8
0
  6
CONTINUOUS
 62
           5
  5
588
 10
-2961.792163774167
 20
-1094.4981603276
 30
0.0
  0
VERTEX
  8
0
  6
CONTINUOUS
 62
           5
  5
589
 10
-2972.482456478792
 20
-1094.149144815747
 30
0.0
  0
SEQEND
  8
0
  6
CONTINUOUS
 62
           5
  5
58A
  0
POLYLINE
  8
0
  6
CONTINUOUS
 62
           5
  5
58B
 66
           1
 10
0.0
 20
0.0
 30
0.0
 70
         128
  0
VERTEX
  8
0
  6
CONTINUOUS
 62
           5
  5
58C
 10
-2830.942760977637
 20
-1101.42672307753
 30
0.0
  0
VERTEX
  8
0
  6
CONTINUOUS
 62
           5
  5
58D
 10
-2841.98194840161
 20
-1101.451760273408
 30
0.0
  0
VERTEX
  8
0
  6
CONTINUOUS
 62
           5
  5
58E
 10
-2852.984918897126
 20
-1101.477828657827
 30
0.0
  0
VERTEX
  8
0
  6
CONTINUOUS
 62
           5
  5
58F
 10
-2863.960570409525
 20
-1101.498531008156
 30
0.0
  0
VERTEX
  8
0
  6
CONTINUOUS
 62
           5
  5
590
 10
-2874.917800884135
 20
-1101.507470101764
 30
0.0
  0
VERTEX
  8
0
  6
CONTINUOUS
 62
           5
  5
591
 10
-2878.788099017022
 20
-1101.504210103047
 30
0.0
  0
SEQEND
  8
0
  6
CONTINUOUS
 62
           5
  5
592
  0
POLYLINE
  8
0
  6
CONTINUOUS
 62
           5
  5
593
 66
           1
 10
0.0
 20
0.0
 30
0.0
 70
         128
  0
VERTEX
  8
0
  6
CONTINUOUS
 62
           5
  5
594
 10
-2900.515789804929
 20
-1101.442587822666
 30
0.0
  0
VERTEX
  8
0
  6
CONTINUOUS
 62
           5
  5
595
 10
-2907.767945534613
 20
-1101.399735615953
 30
0.0
  0
VERTEX
  8
0
  6
CONTINUOUS
 62
           5
  5
596
 10
-2918.740471311436
 20
-1101.297649456367
 30
0.0
  0
VERTEX
  8
0
  6
CONTINUOUS
 62
           5
  5
597
 10
-2929.739065777148
 20
-1101.151813926905
 30
0.0
  0
VERTEX
  8
0
  6
CONTINUOUS
 62
           5
  5
598
 10
-2940.772626877088
 20
-1100.955831804936
 30
0.0
  0
VERTEX
  8
0
  6
CONTINUOUS
 62
           5
  5
599
 10
-2949.99287314321
 20
-1100.74564295817
 30
0.0
  0
SEQEND
  8
0
  6
CONTINUOUS
 62
           5
  5
59A
  0
POLYLINE
  8
0
  6
CONTINUOUS
 62
           5
  5
59B
 66
           1
 10
0.0
 20
0.0
 30
0.0
 70
         128
  0
VERTEX
  8
0
  6
CONTINUOUS
 62
           5
  5
59C
 10
-3170.323722600115
 20
-1030.894171802944
 30
0.0
  0
VERTEX
  8
0
  6
CONTINUOUS
 62
           5
  5
59D
 10
-3166.597461179077
 20
-1030.803938570152
 30
0.0
  0
VERTEX
  8
0
  6
CONTINUOUS
 62
           5
  5
59E
 10
-3145.294786626262
 20
-1030.461386249975
 30
0.0
  0
VERTEX
  8
0
  6
CONTINUOUS
 62
           5
  5
59F
 10
-3143.155260968197
 20
-1030.442378517148
 30
0.0
  0
SEQEND
  8
0
  6
CONTINUOUS
 62
           5
  5
5A0
  0
LINE
  8
0
  6
CONTINUOUS
 62
           5
  5
5A1
 10
-2986.666879689567
 20
-1037.309720718364
 30
0.0
 11
-2728.399913286214
 21
-1040.587240636199
 31
0.0
  0
POLYLINE
  8
0
  6
CONTINUOUS
 62
           5
  5
5A2
 66
           1
 10
0.0
 20
0.0
 30
0.0
 70
         128
  0
VERTEX
  8
0
  6
CONTINUOUS
 62
           5
  5
5A3
 10
-3142.936584465699
 20
-1036.440786343965
 30
0.0
  0
VERTEX
  8
0
  6
CONTINUOUS
 62
           5
  5
5A4
 10
-3124.286350779927
 20
-1036.275124238471
 30
0.0
  0
VERTEX
  8
0
  6
CONTINUOUS
 62
           5
  5
5A5
 10
-3103.585632205239
 20
-1036.220234358846
 30
0.0
  0
VERTEX
  8
0
  6
CONTINUOUS
 62
           5
  5
5A6
 10
-3083.206109467366
 20
-1036.272873380536
 30
0.0
  0
VERTEX
  8
0
  6
CONTINUOUS
 62
           5
  5
5A7
 10
-3063.161261131474
 20
-1036.408851070674
 30
0.0
  0
VERTEX
  8
0
  6
CONTINUOUS
 62
           5
  5
5A8
 10
-3043.464565762732
 20
-1036.60397719639
 30
0.0
  0
VERTEX
  8
0
  6
CONTINUOUS
 62
           5
  5
5A9
 10
-3024.129501926303
 20
-1036.834061524816
 30
0.0
  0
VERTEX
  8
0
  6
CONTINUOUS
 62
           5
  5
5AA
 10
-3018.002328824491
 20
-1036.911896299298
 30
0.0
  0
SEQEND
  8
0
  6
CONTINUOUS
 62
           5
  5
5AB
  0
LINE
  8
0
  6
CONTINUOUS
 62
          93
  5
5AC
 10
-3207.626891240277
 20
-1272.061552701265
 30
0.0
 11
-3200.915717929463
 21
-1274.671453433249
 31
0.0
  0
LINE
  8
0
  6
CONTINUOUS
 62
          93
  5
5AD
 10
-3200.915717929463
 20
-1274.671453433249
 30
0.0
 11
-3196.441602388921
 21
-1274.969727802616
 31
0.0
  0
LINE
  8
0
  6
CONTINUOUS
 62
          93
  5
5AE
 10
-3196.441602388921
 20
-1274.969727802616
 30
0.0
 11
-3190.774389370899
 21
-1274.895159210274
 31
0.0
  0
LINE
  8
0
  6
CONTINUOUS
 62
          93
  5
5AF
 10
-3190.774389370899
 20
-1274.895159210274
 30
0.0
 11
-3185.92743087256
 21
-1272.471679957945
 31
0.0
  0
LINE
  8
0
  6
CONTINUOUS
 62
          93
  5
5B0
 10
-3185.92743087256
 20
-1272.471679957945
 30
0.0
 11
-3168.478380264447
 21
-1250.69765099397
 31
0.0
  0
LINE
  8
0
  6
CONTINUOUS
 62
          93
  5
5B1
 10
-3168.478380264447
 20
-1250.69765099397
 30
0.0
 11
-3187.493371317105
 21
-1156.442950280716
 31
0.0
  0
LINE
  8
0
  6
CONTINUOUS
 62
          93
  5
5B2
 10
-3187.493371317105
 20
-1156.442950280716
 30
0.0
 11
-3220.303551947749
 21
-1141.230957442873
 31
0.0
  0
LINE
  8
0
  6
CONTINUOUS
 62
          93
  5
5B3
 10
-3220.303551947749
 20
-1141.230957442873
 30
0.0
 11
-3210.907909312609
 21
-1140.186997150078
 31
0.0
  0
LINE
  8
0
  6
CONTINUOUS
 62
          93
  5
5B4
 10
-3210.907909312609
 20
-1140.186997150078
 30
0.0
 11
-3210.907909312608
 21
-1091.195431988995
 31
0.0
  0
LINE
  8
0
  6
CONTINUOUS
 62
          93
  5
5B5
 10
-3210.907909312608
 20
-1091.195431988995
 30
0.0
 11
-3220.750963499299
 21
-1088.2126882953
 31
0.0
  0
POLYLINE
  8
0
  6
CONTINUOUS
 62
          93
  5
5B6
 66
           1
 10
0.0
 20
0.0
 30
0.0
 70
         128
1001
TCAD
1000
TCW_CUSTOM_DATA
1002
{
1000
#$AUX@_ToolInfo Properties
1070
           8
1000
Insert^JLine^JPolyline@Line Polyline
1002
}
  0
VERTEX
  8
0
  6
CONTINUOUS
 62
          93
  5
5B7
 10
-3220.750963499299
 20
-1088.2126882953
 30
0.0
  0
VERTEX
  8
0
  6
CONTINUOUS
 62
          93
  5
5B8
 10
-3243.140638344329
 20
-1088.212688295301
 30
0.0
  0
VERTEX
  8
0
  6
CONTINUOUS
 62
          93
  5
5B9
 10
-3243.140638344328
 20
-1244.612982621093
 30
0.0
  0
SEQEND
  8
0
  6
CONTINUOUS
 62
          93
  5
5BA
  0
LINE
  8
0
  6
CONTINUOUS
 62
          93
  5
5BB
 10
-3243.140638344328
 20
-1244.612982621093
 30
0.0
 11
-3207.626891240277
 21
-1272.061552701265
 31
0.0
  0
INSERT
  8
0
  6
CONTINUOUS
 62
           7
  5
5D6
  2
*E14
 10
0.0
 20
0.0
 30
0.0
1001
TCAD
1000
TCW_CUSTOM_DATA
1002
{
1000
#$AUX@_ToolInfo Properties
1070
           8
1000
Insert^JCurve^JBezier@Curve Bezier
1002
}
1000
TC25ExternalObject
1002
{
1000
TCW30CURVE
1000

1070
           0
1071
        0
1040
1.0
1040
0.0
1000
Continuous
1000
0
1071
        4
1071
      162
1010
-2884.648149241732
1020
-1102.669597691826
1030
0.0
1071
     6274
1010
-2871.377528940785
1020
-1108.590883632706
1030
0.0
1071
     6274
1010
-2857.781021492624
1020
-1116.740646625589
1030
0.0
1071
      162
1010
-2846.063336438618
1020
-1128.250319125516
1030
0.0
1070
           3
1071
-2147483643
1070
           1
1000
#$AUX@_ToolInfo Properties
1070
           8
1000
Insert^JCurve^JBezier@Curve Bezier
1000
$SPLINESEGS
1070
          18
1070
          20
1000
$SPLFRAME
1070
          18
1070
           0
1000
$SPLINETYPE
1070
          18
1070
           1
1000
$SHOWCONTRPTS
1070
          18
1070
           1
1000
$CURVESMOOTH
1070
          18
1070
           1
1002
}
  0
LINE
  8
0
  6
CONTINUOUS
 62
           7
  5
5D7
 10
-2814.345002261481
 20
-1184.096712639632
 30
0.0
 11
-2828.307782793833
 21
-1189.071191794712
 31
0.0
  0
LINE
  8
0
  6
CONTINUOUS
 62
           7
  5
5D8
 10
-2828.307782793833
 20
-1189.071191794712
 30
0.0
 11
-2838.924790876859
 21
-1178.354334960612
 31
0.0
  0
LINE
  8
0
  6
CONTINUOUS
 62
           7
  5
5D9
 10
-2838.924790876859
 20
-1178.354334960612
 30
0.0
 11
-2834.254298071102
 21
-1163.484281971089
 31
0.0
  0
LINE
  8
0
  6
CONTINUOUS
 62
           7
  5
5DA
 10
-2814.345002261481
 20
-1184.096712639632
 30
0.0
 11
-2809.94534132348
 21
-1180.013728458546
 31
0.0
1001
TCAD
1000
TCW_CUSTOM_DATA
1002
{
1000
#$AUX@_ToolInfo Properties
1070
           8
1000
Insert^JLine^JSingle@Line Single
1002
}
  0
LINE
  8
0
  6
CONTINUOUS
 62
           7
  5
5DB
 10
-2834.254298071102
 20
-1163.484281971089
 30
0.0
 11
-2829.953728271078
 21
-1159.297890063294
 31
0.0
1001
TCAD
1000
TCW_CUSTOM_DATA
1002
{
1000
#$AUX@_ToolInfo Properties
1070
           8
1000
Insert^JLine^JSingle@Line Single
1002
}
  0
LINE
  8
0
  6
CONTINUOUS
 62
           7
  5
5DC
 10
-2792.888187744809
 20
-1197.673984527375
 30
0.0
 11
-2809.94534132348
 21
-1180.013728458546
 31
0.0
  0
LINE
  8
0
  6
CONTINUOUS
 62
           7
  5
5DD
 10
-2829.953728271078
 20
-1159.297890063294
 30
0.0
 11
-2884.648149241732
 21
-1102.669597691826
 31
0.0
  0
LINE
  8
0
  6
CONTINUOUS
 62
           7
  5
5DE
 10
-2786.227051783366
 20
-1204.57064323692
 30
0.0
 11
-2734.160593567887
 21
-1221.436679499975
 31
0.0
1001
TCAD
1000
TCW_CUSTOM_DATA
1002
{
1000
#$AUX@_ToolInfo Properties
1070
           8
1000
Insert^JLine^JSingle@Line Single
1002
}
  0
POLYLINE
  8
0
  6
CONTINUOUS
 62
           7
  5
5DF
 66
           1
 10
0.0
 20
0.0
 30
0.0
 70
         128
  0
VERTEX
  8
0
  6
CONTINUOUS
 62
           7
  5
5E0
 10
-2846.063336438618
 20
-1128.250319125516
 30
0.0
  0
VERTEX
  8
0
  6
CONTINUOUS
 62
           7
  5
5E1
 10
-2696.087790268434
 20
-1138.031653348595
 30
0.0
  0
VERTEX
  8
0
  6
CONTINUOUS
 62
           7
  5
5E2
 10
-2688.495488696363
 20
-1139.967528057434
 30
0.0
  0
VERTEX
  8
0
  6
CONTINUOUS
 62
           7
  5
5E3
 10
-2681.912793112945
 20
-1143.323932895227
 30
0.0
  0
VERTEX
  8
0
  6
CONTINUOUS
 62
           7
  5
5E4
 10
-2648.655589837718
 20
-1176.893906979818
 30
0.0
  0
VERTEX
  8
0
  6
CONTINUOUS
 62
           7
  5
5E5
 10
-2734.160593567887
 20
-1221.436679499975
 30
0.0
  0
SEQEND
  8
0
  6
CONTINUOUS
 62
           7
  5
5E6
  0
LINE
  8
0
  6
CONTINUOUS
 62
           7
  5
5E7
 10
-2786.168461866282
 20
-1204.589622435814
 30
0.0
 11
-2792.88818774476
 21
-1197.673984527425
 31
0.0
  0
POLYLINE
  8
0
  6
CONTINUOUS
 62
          93
  5
5E8
 66
           1
 10
0.0
 20
0.0
 30
0.0
 70
         128
  0
VERTEX
  8
0
  6
CONTINUOUS
 62
          93
  5
5E9
 10
-2413.265571371571
 20
-675.662975236221
 30
0.0
  0
VERTEX
  8
0
  6
CONTINUOUS
 62
          93
  5
5EA
 10
-2416.521927438599
 20
-673.498951080151
 30
0.0
  0
VERTEX
  8
0
  6
CONTINUOUS
 62
          93
  5
5EB
 10
-2425.313023855195
 20
-668.834573776988
 30
0.0
  0
VERTEX
  8
0
  6
CONTINUOUS
 62
          93
  5
5EC
 10
-2435.070641081236
 20
-664.645179764816
 30
0.0
  0
VERTEX
  8
0
  6
CONTINUOUS
 62
          93
  5
5ED
 10
-2445.740866024461
 20
-660.906105481722
 30
0.0
  0
VERTEX
  8
0
  6
CONTINUOUS
 62
          93
  5
5EE
 10
-2457.269785592609
 20
-657.59268736579
 30
0.0
  0
VERTEX
  8
0
  6
CONTINUOUS
 62
          93
  5
5EF
 10
-2469.60348669342
 20
-654.680261855107
 30
0.0
  0
VERTEX
  8
0
  6
CONTINUOUS
 62
          93
  5
5F0
 10
-2482.688056234633
 20
-652.144165387757
 30
0.0
  0
VERTEX
  8
0
  6
CONTINUOUS
 62
          93
  5
5F1
 10
-2496.469581123988
 20
-649.959734401826
 30
0.0
  0
VERTEX
  8
0
  6
CONTINUOUS
 62
          93
  5
5F2
 10
-2510.894148269222
 20
-648.1023053354
 30
0.0
  0
VERTEX
  8
0
  6
CONTINUOUS
 62
          93
  5
5F3
 10
-2525.907844578076
 20
-646.547214626564
 30
0.0
  0
VERTEX
  8
0
  6
CONTINUOUS
 62
          93
  5
5F4
 10
-2541.456756958288
 20
-645.269798713405
 30
0.0
  0
VERTEX
  8
0
  6
CONTINUOUS
 62
          93
  5
5F5
 10
-2557.486972317599
 20
-644.245394034006
 30
0.0
  0
VERTEX
  8
0
  6
CONTINUOUS
 62
          93
  5
5F6
 10
-2573.944577563748
 20
-643.449337026454
 30
0.0
  0
VERTEX
  8
0
  6
CONTINUOUS
 62
          93
  5
5F7
 10
-2590.775659604473
 20
-642.856964128835
 30
0.0
  0
VERTEX
  8
0
  6
CONTINUOUS
 62
          93
  5
5F8
 10
-2607.926305347515
 20
-642.443611779232
 30
0.0
  0
VERTEX
  8
0
  6
CONTINUOUS
 62
          93
  5
5F9
 10
-2625.342601700612
 20
-642.184616415735
 30
0.0
  0
VERTEX
  8
0
  6
CONTINUOUS
 62
          93
  5
5FA
 10
-2642.970635571503
 20
-642.055314476425
 30
0.0
  0
VERTEX
  8
0
  6
CONTINUOUS
 62
          93
  5
5FB
 10
-2660.756493867928
 20
-642.03104239939
 30
0.0
  0
VERTEX
  8
0
  6
CONTINUOUS
 62
          93
  5
5FC
 10
-2678.646263497626
 20
-642.087136622714
 30
0.0
  0
VERTEX
  8
0
  6
CONTINUOUS
 62
          93
  5
5FD
 10
-2696.586031368337
 20
-642.198933584485
 30
0.0
  0
SEQEND
  8
0
  6
CONTINUOUS
 62
          93
  5
5FE
  0
LINE
  8
0
  6
CONTINUOUS
 62
          93
  5
5FF
 10
-2696.586031368337
 20
-642.198933584485
 30
0.0
 11
-2696.586031368337
 21
-639.663601444849
 31
0.0
  0
LINE
  8
0
  6
CONTINUOUS
 62
          93
  5
600
 10
-2696.586031368337
 20
-639.663601444849
 30
0.0
 11
-2679.136980760254
 21
-639.663601444849
 31
0.0
  0
LINE
  8
0
  6
CONTINUOUS
 62
          93
  5
601
 10
-2705.448197765345
 20
-598.856526261053
 30
0.0
 11
-2876.147201712237
 21
-532.433965667202
 31
0.0
  0
LINE
  8
0
  6
CONTINUOUS
 62
          93
  5
602
 10
-2876.147201712268
 20
-532.43396566717
 30
0.0
 11
-3137.944940511554
 21
-430.311211364733
 31
0.0
  0
LINE
  8
0
  6
CONTINUOUS
 62
          93
  5
603
 10
-3137.944940511554
 20
-430.311211364733
 30
0.0
 11
-3146.613977889436
 21
-428.66297523622
 31
0.0
  0
LINE
  8
0
  6
CONTINUOUS
 62
          93
  5
604
 10
-3146.613977889436
 20
-428.66297523622
 30
0.0
 11
-3156.184011623204
 21
-430.984426873654
 31
0.0
  0
LINE
  8
0
  6
CONTINUOUS
 62
          93
  5
605
 10
-3156.184011623204
 20
-430.984426873654
 30
0.0
 11
-3171.228365480482
 21
-436.837077189982
 31
0.0
  0
LINE
  8
0
  6
CONTINUOUS
 62
          93
  5
606
 10
-3171.228365480482
 20
-436.837077189982
 30
0.0
 11
-3193.488620618931
 21
-448.66072589275
 31
0.0
  0
LINE
  8
0
  6
CONTINUOUS
 62
          93
  5
607
 10
-3193.488620618931
 20
-448.66072589275
 30
0.0
 11
-3208.859303088419
 21
-459.184995082068
 31
0.0
  0
LINE
  8
0
  6
CONTINUOUS
 62
          93
  5
608
 10
-3064.358328765988
 20
-574.639788928312
 30
0.0
 11
-3221.47435281953
 21
-453.204836307968
 31
0.0
  0
LINE
  8
0
  6
CONTINUOUS
 62
          93
  5
609
 10
-3221.47435281953
 20
-453.204836307968
 30
0.0
 11
-3228.185526130331
 21
-450.594935575989
 31
0.0
  0
LINE
  8
0
  6
CONTINUOUS
 62
          93
  5
60A
 10
-3228.185526130331
 20
-450.594935575989
 30
0.0
 11
-3232.659641670864
 21
-450.296661206621
 31
0.0
  0
LINE
  8
0
  6
CONTINUOUS
 62
          93
  5
60B
 10
-3232.659641670864
 20
-450.296661206621
 30
0.0
 11
-3238.326854688874
 21
-450.371229798963
 31
0.0
  0
LINE
  8
0
  6
CONTINUOUS
 62
          93
  5
60C
 10
-3238.326854688874
 20
-450.371229798963
 30
0.0
 11
-3243.173813187204
 21
-452.794709051289
 31
0.0
  0
LINE
  8
0
  6
CONTINUOUS
 62
          93
  5
60D
 10
-3243.173813187204
 20
-452.794709051289
 30
0.0
 11
-3260.622863795287
 21
-474.568738015222
 31
0.0
  0
LINE
  8
0
  6
CONTINUOUS
 62
          93
  5
60E
 10
-3260.622863795287
 20
-474.568738015222
 30
0.0
 11
-3241.607872742664
 21
-568.823438728302
 31
0.0
  0
LINE
  8
0
  6
CONTINUOUS
 62
          93
  5
60F
 10
-3241.607872742664
 20
-568.823438728302
 30
0.0
 11
-3208.797692112081
 21
-584.035431566118
 31
0.0
  0
LINE
  8
0
  6
CONTINUOUS
 62
          93
  5
610
 10
-3208.797692112081
 20
-584.035431566118
 30
0.0
 11
-3218.193334747202
 21
-585.079391858909
 31
0.0
  0
LINE
  8
0
  6
CONTINUOUS
 62
          93
  5
611
 10
-3218.193334747202
 20
-585.079391858909
 30
0.0
 11
-3218.193334747202
 21
-634.070957019904
 31
0.0
  0
LINE
  8
0
  6
CONTINUOUS
 62
          93
  5
612
 10
-3218.193334747202
 20
-634.070957019904
 30
0.0
 11
-3208.350280560533
 21
-637.053700713593
 31
0.0
  0
LINE
  8
0
  6
CONTINUOUS
 62
          93
  5
613
 10
-3208.350280560533
 20
-637.053700713593
 30
0.0
 11
-3225.501056799247
 21
-643.764874024394
 31
0.0
  0
LINE
  8
0
  6
CONTINUOUS
 62
          93
  5
614
 10
-3225.501056799247
 20
-643.764874024394
 30
0.0
 11
-3225.501056799247
 21
-665.091491434273
 31
0.0
  0
LINE
  8
0
  6
CONTINUOUS
 62
          93
  5
615
 10
-3225.501056799247
 20
-665.091491434273
 30
0.0
 11
-3251.749201303713
 21
-665.091491434273
 31
0.0
  0
LINE
  8
0
  6
CONTINUOUS
 62
          93
  5
616
 10
-3251.749201303713
 20
-665.091491434273
 30
0.0
 11
-3255.477630920825
 21
-665.837177357696
 31
0.0
  0
LINE
  8
0
  6
CONTINUOUS
 62
          93
  5
617
 10
-3255.477630920825
 20
-665.837177357696
 30
0.0
 11
-3256.48430692177
 21
-670.10622926155
 31
0.0
  0
LINE
  8
0
  6
CONTINUOUS
 62
          93
  5
618
 10
-3256.48430692177
 20
-670.10622926155
 30
0.0
 11
-3260.734716682529
 21
-670.10622926155
 31
0.0
  0
LINE
  8
0
  6
CONTINUOUS
 62
          93
  5
619
 10
-3260.734716682529
 20
-670.10622926155
 30
0.0
 11
-3260.734716682529
 21
-678.66297523622
 31
0.0
  0
LINE
  8
0
  6
CONTINUOUS
 62
          93
  5
61A
 10
-3208.859303088419
 20
-459.184995082068
 30
0.0
 11
-3050.978360069929
 21
-575.556225140371
 31
0.0
  0
POLYLINE
  8
0
  6
CONTINUOUS
 62
          93
  5
61B
 66
           1
 10
0.0
 20
0.0
 30
0.0
 70
         128
  0
VERTEX
  8
0
  6
CONTINUOUS
 62
          93
  5
61C
 10
-2413.265571371574
 20
-681.662975236221
 30
0.0
  0
VERTEX
  8
0
  6
CONTINUOUS
 62
          93
  5
61D
 10
-2416.521927438599
 20
-683.826999392289
 30
0.0
  0
VERTEX
  8
0
  6
CONTINUOUS
 62
          93
  5
61E
 10
-2425.313023855195
 20
-688.491376695453
 30
0.0
  0
VERTEX
  8
0
  6
CONTINUOUS
 62
          93
  5
61F
 10
-2435.070641081236
 20
-692.680770707624
 30
0.0
  0
VERTEX
  8
0
  6
CONTINUOUS
 62
          93
  5
620
 10
-2445.740866024461
 20
-696.419844990719
 30
0.0
  0
VERTEX
  8
0
  6
CONTINUOUS
 62
          93
  5
621
 10
-2457.269785592609
 20
-699.73326310665
 30
0.0
  0
VERTEX
  8
0
  6
CONTINUOUS
 62
          93
  5
622
 10
-2469.60348669342
 20
-702.645688617334
 30
0.0
  0
VERTEX
  8
0
  6
CONTINUOUS
 62
          93
  5
623
 10
-2482.688056234633
 20
-705.181785084684
 30
0.0
  0
VERTEX
  8
0
  6
CONTINUOUS
 62
          93
  5
624
 10
-2496.469581123988
 20
-707.366216070615
 30
0.0
  0
VERTEX
  8
0
  6
CONTINUOUS
 62
          93
  5
625
 10
-2510.894148269221
 20
-709.22364513704
 30
0.0
  0
VERTEX
  8
0
  6
CONTINUOUS
 62
          93
  5
626
 10
-2525.907844578075
 20
-710.778735845876
 30
0.0
  0
VERTEX
  8
0
  6
CONTINUOUS
 62
          93
  5
627
 10
-2541.456756958288
 20
-712.056151759036
 30
0.0
  0
VERTEX
  8
0
  6
CONTINUOUS
 62
          93
  5
628
 10
-2557.486972317599
 20
-713.080556438435
 30
0.0
  0
VERTEX
  8
0
  6
CONTINUOUS
 62
          93
  5
629
 10
-2573.944577563748
 20
-713.876613445987
 30
0.0
  0
VERTEX
  8
0
  6
CONTINUOUS
 62
          93
  5
62A
 10
-2590.775659604473
 20
-714.468986343607
 30
0.0
  0
VERTEX
  8
0
  6
CONTINUOUS
 62
          93
  5
62B
 10
-2607.926305347515
 20
-714.882338693208
 30
0.0
  0
VERTEX
  8
0
  6
CONTINUOUS
 62
          93
  5
62C
 10
-2625.342601700612
 20
-715.141334056706
 30
0.0
  0
VERTEX
  8
0
  6
CONTINUOUS
 62
          93
  5
62D
 10
-2642.970635571503
 20
-715.270635996016
 30
0.0
  0
VERTEX
  8
0
  6
CONTINUOUS
 62
          93
  5
62E
 10
-2660.756493867928
 20
-715.294908073051
 30
0.0
  0
VERTEX
  8
0
  6
CONTINUOUS
 62
          93
  5
62F
 10
-2678.646263497626
 20
-715.238813849726
 30
0.0
  0
VERTEX
  8
0
  6
CONTINUOUS
 62
          93
  5
630
 10
-2696.586031368337
 20
-715.127016887956
 30
0.0
  0
SEQEND
  8
0
  6
CONTINUOUS
 62
          93
  5
631
  0
LINE
  8
0
  6
CONTINUOUS
 62
          93
  5
632
 10
-2696.586031368337
 20
-715.127016887956
 30
0.0
 11
-2696.586031368337
 21
-717.662349027592
 31
0.0
  0
LINE
  8
0
  6
CONTINUOUS
 62
          93
  5
633
 10
-2696.586031368337
 20
-717.662349027592
 30
0.0
 11
-2679.136980760254
 21
-717.662349027592
 31
0.0
  0
LINE
  8
0
  6
CONTINUOUS
 62
          93
  5
634
 10
-2876.147201712268
 20
-824.891984805271
 30
0.0
 11
-3137.944940511554
 21
-927.014739107708
 31
0.0
  0
LINE
  8
0
  6
CONTINUOUS
 62
          93
  5
635
 10
-3137.944940511554
 20
-927.014739107708
 30
0.0
 11
-3146.613977889436
 21
-928.66297523622
 31
0.0
  0
LINE
  8
0
  6
CONTINUOUS
 62
          93
  5
636
 10
-3146.613977889436
 20
-928.66297523622
 30
0.0
 11
-3156.184011623204
 21
-926.341523598786
 31
0.0
  0
LINE
  8
0
  6
CONTINUOUS
 62
          93
  5
637
 10
-3156.184011623204
 20
-926.341523598786
 30
0.0
 11
-3171.228365480482
 21
-920.488873282458
 31
0.0
  0
LINE
  8
0
  6
CONTINUOUS
 62
          93
  5
638
 10
-3171.228365480482
 20
-920.488873282458
 30
0.0
 11
-3193.488620618931
 21
-908.66522457969
 31
0.0
  0
LINE
  8
0
  6
CONTINUOUS
 62
          93
  5
639
 10
-3193.488620618931
 20
-908.66522457969
 30
0.0
 11
-3208.859303088419
 21
-898.140955390373
 31
0.0
  0
LINE
  8
0
  6
CONTINUOUS
 62
          93
  5
63A
 10
-3064.358328765988
 20
-782.686161544128
 30
0.0
 11
-3221.47435281953
 21
-904.121114164473
 31
0.0
  0
LINE
  8
0
  6
CONTINUOUS
 62
          93
  5
63B
 10
-3221.47435281953
 20
-904.121114164473
 30
0.0
 11
-3228.185526130331
 21
-906.731014896451
 31
0.0
  0
LINE
  8
0
  6
CONTINUOUS
 62
          93
  5
63C
 10
-3228.185526130331
 20
-906.731014896451
 30
0.0
 11
-3232.659641670864
 21
-907.02928926582
 31
0.0
  0
LINE
  8
0
  6
CONTINUOUS
 62
          93
  5
63D
 10
-3232.659641670864
 20
-907.02928926582
 30
0.0
 11
-3238.326854688874
 21
-906.954720673478
 31
0.0
  0
LINE
  8
0
  6
CONTINUOUS
 62
          93
  5
63E
 10
-3238.326854688874
 20
-906.954720673478
 30
0.0
 11
-3243.173813187204
 21
-904.531241421151
 31
0.0
  0
LINE
  8
0
  6
CONTINUOUS
 62
          93
  5
63F
 10
-3243.173813187204
 20
-904.531241421151
 30
0.0
 11
-3260.622863795287
 21
-882.757212457219
 31
0.0
  0
LINE
  8
0
  6
CONTINUOUS
 62
          93
  5
640
 10
-3260.622863795287
 20
-882.757212457219
 30
0.0
 11
-3241.607872742664
 21
-788.502511744138
 31
0.0
  0
LINE
  8
0
  6
CONTINUOUS
 62
          93
  5
641
 10
-3241.607872742664
 20
-788.502511744138
 30
0.0
 11
-3208.797692112081
 21
-773.290518906323
 31
0.0
  0
LINE
  8
0
  6
CONTINUOUS
 62
          93
  5
642
 10
-3208.797692112081
 20
-773.290518906323
 30
0.0
 11
-3218.193334747202
 21
-772.246558613531
 31
0.0
  0
LINE
  8
0
  6
CONTINUOUS
 62
          93
  5
643
 10
-3218.193334747202
 20
-772.246558613531
 30
0.0
 11
-3218.193334747202
 21
-723.254993452536
 31
0.0
  0
LINE
  8
0
  6
CONTINUOUS
 62
          93
  5
644
 10
-3218.193334747202
 20
-723.254993452536
 30
0.0
 11
-3208.350280560533
 21
-720.272249758847
 31
0.0
  0
LINE
  8
0
  6
CONTINUOUS
 62
          93
  5
645
 10
-3208.350280560533
 20
-720.272249758847
 30
0.0
 11
-3225.501056799247
 21
-713.561076448046
 31
0.0
  0
LINE
  8
0
  6
CONTINUOUS
 62
          93
  5
646
 10
-3225.501056799247
 20
-713.561076448046
 30
0.0
 11
-3225.501056799247
 21
-692.234459038167
 31
0.0
  0
LINE
  8
0
  6
CONTINUOUS
 62
          93
  5
647
 10
-3225.501056799247
 20
-692.234459038167
 30
0.0
 11
-3251.749201303713
 21
-692.234459038167
 31
0.0
  0
LINE
  8
0
  6
CONTINUOUS
 62
          93
  5
648
 10
-3251.749201303713
 20
-692.234459038167
 30
0.0
 11
-3255.477630920825
 21
-691.488773114745
 31
0.0
  0
LINE
  8
0
  6
CONTINUOUS
 62
          93
  5
649
 10
-3255.477630920825
 20
-691.488773114745
 30
0.0
 11
-3256.48430692177
 21
-687.21972121089
 31
0.0
  0
LINE
  8
0
  6
CONTINUOUS
 62
          93
  5
64A
 10
-3256.48430692177
 20
-687.21972121089
 30
0.0
 11
-3260.734716682529
 21
-687.21972121089
 31
0.0
  0
LINE
  8
0
  6
CONTINUOUS
 62
          93
  5
64B
 10
-3260.734716682529
 20
-687.21972121089
 30
0.0
 11
-3260.734716682529
 21
-678.66297523622
 31
0.0
  0
LINE
  8
0
  6
CONTINUOUS
 62
          93
  5
64C
 10
-3208.859303088419
 20
-898.140955390373
 30
0.0
 11
-3050.978360069929
 21
-781.769725332069
 31
0.0
  0
LINE
  8
0
  6
CONTINUOUS
 62
          93
  5
64D
 10
-3050.978360069929
 20
-575.556225140371
 30
0.0
 11
-3064.358328765988
 21
-574.639788928312
 31
0.0
  0
LINE
  8
0
  6
CONTINUOUS
 62
          93
  5
64E
 10
-3050.978360069929
 20
-781.769725332069
 30
0.0
 11
-3064.358328765988
 21
-782.686161544128
 31
0.0
  0
POLYLINE
  8
0
  6
CONTINUOUS
 62
          93
  5
64F
 66
           1
 10
0.0
 20
0.0
 30
0.0
 70
         128
1001
TCAD
1000
TCW_CUSTOM_DATA
1002
{
1000
#$AUX@_ToolInfo Properties
1070
           8
1000
Insert^JLine^JPolyline@Line Polyline
1002
}
  0
VERTEX
  8
0
  6
CONTINUOUS
 62
          93
  5
650
 10
-3208.350280560533
 20
-637.053700713593
 30
0.0
  0
VERTEX
  8
0
  6
CONTINUOUS
 62
          93
  5
651
 10
-3185.960605715542
 20
-637.053700713593
 30
0.0
  0
VERTEX
  8
0
  6
CONTINUOUS
 62
          93
  5
652
 10
-3185.960605715542
 20
-480.653406388089
 30
0.0
  0
SEQEND
  8
0
  6
CONTINUOUS
 62
          93
  5
653
  0
POLYLINE
  8
0
  6
CONTINUOUS
 62
          93
  5
654
 66
           1
 10
0.0
 20
0.0
 30
0.0
 70
         128
1001
TCAD
1000
TCW_CUSTOM_DATA
1002
{
1000
#$AUX@_ToolInfo Properties
1070
           8
1000
Insert^JLine^JPolyline@Line Polyline
1002
}
  0
VERTEX
  8
0
  6
CONTINUOUS
 62
          93
  5
655
 10
-3208.350280560533
 20
-720.272249758847
 30
0.0
  0
VERTEX
  8
0
  6
CONTINUOUS
 62
          93
  5
656
 10
-3185.960605715542
 20
-720.272249758847
 30
0.0
  0
VERTEX
  8
0
  6
CONTINUOUS
 62
          93
  5
657
 10
-3185.960605715542
 20
-876.672544084352
 30
0.0
  0
SEQEND
  8
0
  6
CONTINUOUS
 62
          93
  5
658
  0
POLYLINE
  8
0
  6
CONTINUOUS
 62
          93
  5
659
 66
           1
 10
0.0
 20
0.0
 30
0.0
 70
         129
1001
TCAD
1000
TCW_CUSTOM_DATA
1002
{
1000
#$AUX@_ToolInfo Properties
1070
           8
1000
Insert^JLine^JRectangle@Line Rectangle
1002
}
  0
VERTEX
  8
0
  6
CONTINUOUS
 62
          93
  5
65A
 10
-2736.655426943498
 20
-675.662975236222
 30
0.0
  0
VERTEX
  8
0
  6
CONTINUOUS
 62
          93
  5
65B
 10
-2687.207452328623
 20
-675.662975236222
 30
0.0
  0
VERTEX
  8
0
  6
CONTINUOUS
 62
          93
  5
65C
 10
-2687.207452328623
 20
-681.662975236221
 30
0.0
  0
VERTEX
  8
0
  6
CONTINUOUS
 62
          93
  5
65D
 10
-2736.655426943498
 20
-681.662975236221
 30
0.0
  0
SEQEND
  8
0
  6
CONTINUOUS
 62
          93
  5
65E
  0
POLYLINE
  8
0
  6
CONTINUOUS
 62
          93
  5
65F
 66
           1
 10
0.0
 20
0.0
 30
0.0
 70
         128
1001
TCAD
1000
TCW_CUSTOM_DATA
1002
{
1000
#$AUX@_ToolInfo Properties
1070
           8
1000
Insert^JLine^JRectangle@Line Rectangle
1002
}
  0
VERTEX
  8
0
  6
CONTINUOUS
 62
          93
  5
660
 10
-2413.265571371574
 20
-681.662975236221
 30
0.0
  0
VERTEX
  8
0
  6
CONTINUOUS
 62
          93
  5
661
 10
-2545.89041419843
 20
-681.662975236221
 30
0.0
  0
VERTEX
  8
0
  6
CONTINUOUS
 62
          93
  5
662
 10
-2545.89041419843
 20
-675.662975236221
 30
0.0
  0
VERTEX
  8
0
  6
CONTINUOUS
 62
          93
  5
663
 10
-2413.26557137157
 20
-675.662975236221
 30
0.0
  0
SEQEND
  8
0
  6
CONTINUOUS
 62
          93
  5
664
  0
LINE
  8
0
  6
CONTINUOUS
 62
          93
  5
665
 10
-2983.334728828038
 20
-675.662975236222
 30
0.0
 11
-2959.15734001667
 21
-675.662975236222
 31
0.0
  0
LINE
  8
0
  6
CONTINUOUS
 62
          93
  5
666
 10
-2959.15734001667
 20
-675.662975236222
 30
0.0
 11
-2959.15734001667
 21
-681.662975236222
 31
0.0
  0
LINE
  8
0
  6
CONTINUOUS
 62
          93
  5
667
 10
-2959.15734001667
 20
-681.662975236222
 30
0.0
 11
-2983.334728828038
 21
-681.662975236222
 31
0.0
  0
LINE
  8
0
  6
CONTINUOUS
 62
          93
  5
668
 10
-2705.448197765345
 20
-758.46942421139
 30
0.0
 11
-2876.147201712237
 21
-824.891984805241
 31
0.0
  0
LINE
  8
0
  6
CONTINUOUS
 62
          93
  5
669
 10
-2705.448197765345
 20
-598.856526261053
 30
0.0
 11
-2706.291763685465
 21
-604.881547076988
 31
0.0
1001
TCAD
1000
TCW_CUSTOM_DATA
1002
{
1000
#$AUX@_ToolInfo Properties
1070
           8
1000
Insert^JLine^JSingle@Line Single
1002
}
  0
LINE
  8
0
  6
CONTINUOUS
 62
          93
  5
66A
 10
-2862.344086180149
 20
-586.272499193209
 30
0.0
 11
-2862.542944616704
 21
-592.399926632217
 31
0.0
1001
TCAD
1000
TCW_CUSTOM_DATA
1002
{
1000
#$AUX@_ToolInfo Properties
1070
           8
1000
Insert^JLine^JSingle@Line Single
1002
}
  0
LINE
  8
0
  6
CONTINUOUS
 62
          93
  5
66B
 10
-2830.964428785758
 20
-587.597366231939
 30
0.0
 11
-2831.233131919884
 21
-593.718684534625
 31
0.0
1001
TCAD
1000
TCW_CUSTOM_DATA
1002
{
1000
#$AUX@_ToolInfo Properties
1070
           8
1000
Insert^JLine^JSingle@Line Single
1002
}
  0
LINE
  8
0
  6
CONTINUOUS
 62
          93
  5
66C
 10
-3149.272483200989
 20
-585.131255653417
 30
0.0
 11
-3149.272483200989
 21
-591.265136808635
 31
0.0
1001
TCAD
1000
TCW_CUSTOM_DATA
1002
{
1000
#$AUX@_ToolInfo Properties
1070
           8
1000
Insert^JLine^JSingle@Line Single
1002
}
  0
LINE
  8
0
  6
CONTINUOUS
 62
          93
  5
66D
 10
-3120.625328407387
 20
-584.985050405715
 30
0.0
 11
-3120.625328407387
 21
-591.118931560934
 31
0.0
1001
TCAD
1000
TCW_CUSTOM_DATA
1002
{
1000
#$AUX@_ToolInfo Properties
1070
           8
1000
Insert^JLine^JSingle@Line Single
1002
}
  0
POLYLINE
  8
0
  6
CONTINUOUS
 62
          93
  5
66E
 66
           1
 10
0.0
 20
0.0
 30
0.0
 70
         128
  0
VERTEX
  8
0
  6
CONTINUOUS
 62
          93
  5
66F
 10
-2679.136980760254
 20
-608.960597983003
 30
0.0
  0
VERTEX
  8
0
  6
CONTINUOUS
 62
          93
  5
670
 10
-2703.317999991151
 20
-605.265304785768
 30
0.0
  0
VERTEX
  8
0
  6
CONTINUOUS
 62
          93
  5
671
 10
-2706.291763685465
 20
-604.881547076989
 30
0.0
  0
SEQEND
  8
0
  6
CONTINUOUS
 62
          93
  5
672
  0
POLYLINE
  8
0
  6
CONTINUOUS
 62
          93
  5
673
 66
           1
 10
0.0
 20
0.0
 30
0.0
 70
         128
  0
VERTEX
  8
0
  6
CONTINUOUS
 62
          93
  5
674
 10
-2831.233131919884
 20
-593.718684534625
 30
0.0
  0
VERTEX
  8
0
  6
CONTINUOUS
 62
          93
  5
675
 10
-2857.681529506804
 20
-592.557698130586
 30
0.0
  0
VERTEX
  8
0
  6
CONTINUOUS
 62
          93
  5
676
 10
-2862.542944616704
 20
-592.399926632217
 30
0.0
  0
SEQEND
  8
0
  6
CONTINUOUS
 62
          93
  5
677
  0
POLYLINE
  8
0
  6
CONTINUOUS
 62
          93
  5
678
 66
           1
 10
0.0
 20
0.0
 30
0.0
 70
         128
  0
VERTEX
  8
0
  6
CONTINUOUS
 62
          93
  5
679
 10
-3120.625328407387
 20
-591.118931560934
 30
0.0
  0
VERTEX
  8
0
  6
CONTINUOUS
 62
          93
  5
67A
 10
-3134.60290279939
 20
-591.206142396885
 30
0.0
  0
VERTEX
  8
0
  6
CONTINUOUS
 62
          93
  5
67B
 10
-3149.272483200989
 20
-591.265136808635
 30
0.0
  0
SEQEND
  8
0
  6
CONTINUOUS
 62
          93
  5
67C
  0
POLYLINE
  8
0
  6
CONTINUOUS
 62
          93
  5
67D
 66
           1
 10
0.0
 20
0.0
 30
0.0
 70
         128
  0
VERTEX
  8
0
  6
CONTINUOUS
 62
          93
  5
67E
 10
-2830.964428785758
 20
-587.597366231938
 30
0.0
  0
VERTEX
  8
0
  6
CONTINUOUS
 62
          93
  5
67F
 10
-2831.022912869109
 20
-587.594031214818
 30
0.0
  0
VERTEX
  8
0
  6
CONTINUOUS
 62
          93
  5
680
 10
-2857.681529506804
 20
-586.423816975368
 30
0.0
  0
VERTEX
  8
0
  6
CONTINUOUS
 62
          93
  5
681
 10
-2862.344086180149
 20
-586.272499193209
 30
0.0
  0
SEQEND
  8
0
  6
CONTINUOUS
 62
          93
  5
682
  0
LINE
  8
0
  6
CONTINUOUS
 62
          93
  5
683
 10
-2679.136980760254
 20
-639.663601444849
 30
0.0
 11
-2679.136980760254
 21
-608.960597983003
 31
0.0
  0
POLYLINE
  8
0
  6
CONTINUOUS
 62
          93
  5
684
 66
           1
 10
0.0
 20
0.0
 30
0.0
 70
         128
  0
VERTEX
  8
0
  6
CONTINUOUS
 62
          93
  5
685
 10
-3120.625328407387
 20
-584.985050405715
 30
0.0
  0
VERTEX
  8
0
  6
CONTINUOUS
 62
          93
  5
686
 10
-3134.60290279939
 20
-585.072261241667
 30
0.0
  0
VERTEX
  8
0
  6
CONTINUOUS
 62
          93
  5
687
 10
-3149.272483200989
 20
-585.131255653417
 30
0.0
  0
SEQEND
  8
0
  6
CONTINUOUS
 62
          93
  5
688
  0
LINE
  8
0
  6
CONTINUOUS
 62
          93
  5
689
 10
-2862.344086180149
 20
-771.053451279235
 30
0.0
 11
-2862.542944616704
 21
-764.926023840227
 31
0.0
1001
TCAD
1000
TCW_CUSTOM_DATA
1002
{
1000
#$AUX@_ToolInfo Properties
1070
           8
1000
Insert^JLine^JSingle@Line Single
1002
}
  0
LINE
  8
0
  6
CONTINUOUS
 62
          93
  5
68A
 10
-2830.964428785758
 20
-769.728584240505
 30
0.0
 11
-2831.233131919884
 21
-763.607265937818
 31
0.0
1001
TCAD
1000
TCW_CUSTOM_DATA
1002
{
1000
#$AUX@_ToolInfo Properties
1070
           8
1000
Insert^JLine^JSingle@Line Single
1002
}
  0
LINE
  8
0
  6
CONTINUOUS
 62
          93
  5
68B
 10
-3149.272483200989
 20
-772.194694819027
 30
0.0
 11
-3149.272483200989
 21
-766.060813663809
 31
0.0
1001
TCAD
1000
TCW_CUSTOM_DATA
1002
{
1000
#$AUX@_ToolInfo Properties
1070
           8
1000
Insert^JLine^JSingle@Line Single
1002
}
  0
LINE
  8
0
  6
CONTINUOUS
 62
          93
  5
68C
 10
-3120.625328407387
 20
-772.340900066728
 30
0.0
 11
-3120.625328407387
 21
-766.20701891151
 31
0.0
1001
TCAD
1000
TCW_CUSTOM_DATA
1002
{
1000
#$AUX@_ToolInfo Properties
1070
           8
1000
Insert^JLine^JSingle@Line Single
1002
}
  0
POLYLINE
  8
0
  6
CONTINUOUS
 62
          93
  5
68D
 66
           1
 10
0.0
 20
0.0
 30
0.0
 70
         128
  0
VERTEX
  8
0
  6
CONTINUOUS
 62
          93
  5
68E
 10
-2679.136980760254
 20
-748.36535248944
 30
0.0
  0
VERTEX
  8
0
  6
CONTINUOUS
 62
          93
  5
68F
 10
-2703.317999991151
 20
-752.060645686676
 30
0.0
  0
VERTEX
  8
0
  6
CONTINUOUS
 62
          93
  5
690
 10
-2706.291763685465
 20
-752.444403395455
 30
0.0
  0
SEQEND
  8
0
  6
CONTINUOUS
 62
          93
  5
691
  0
POLYLINE
  8
0
  6
CONTINUOUS
 62
          93
  5
692
 66
           1
 10
0.0
 20
0.0
 30
0.0
 70
         128
  0
VERTEX
  8
0
  6
CONTINUOUS
 62
          93
  5
693
 10
-2831.233131919884
 20
-763.607265937818
 30
0.0
  0
VERTEX
  8
0
  6
CONTINUOUS
 62
          93
  5
694
 10
-2857.681529506804
 20
-764.768252341858
 30
0.0
  0
VERTEX
  8
0
  6
CONTINUOUS
 62
          93
  5
695
 10
-2862.542944616704
 20
-764.926023840227
 30
0.0
  0
SEQEND
  8
0
  6
CONTINUOUS
 62
          93
  5
696
  0
POLYLINE
  8
0
  6
CONTINUOUS
 62
          93
  5
697
 66
           1
 10
0.0
 20
0.0
 30
0.0
 70
         128
  0
VERTEX
  8
0
  6
CONTINUOUS
 62
          93
  5
698
 10
-3120.625328407387
 20
-766.20701891151
 30
0.0
  0
VERTEX
  8
0
  6
CONTINUOUS
 62
          93
  5
699
 10
-3134.60290279939
 20
-766.119808075559
 30
0.0
  0
VERTEX
  8
0
  6
CONTINUOUS
 62
          93
  5
69A
 10
-3149.272483200989
 20
-766.060813663809
 30
0.0
  0
SEQEND
  8
0
  6
CONTINUOUS
 62
          93
  5
69B
  0
POLYLINE
  8
0
  6
CONTINUOUS
 62
          93
  5
69C
 66
           1
 10
0.0
 20
0.0
 30
0.0
 70
         128
  0
VERTEX
  8
0
  6
CONTINUOUS
 62
          93
  5
69D
 10
-2830.964428785758
 20
-769.728584240505
 30
0.0
  0
VERTEX
  8
0
  6
CONTINUOUS
 62
          93
  5
69E
 10
-2831.022912869109
 20
-769.731919257626
 30
0.0
  0
VERTEX
  8
0
  6
CONTINUOUS
 62
          93
  5
69F
 10
-2857.681529506804
 20
-770.902133497076
 30
0.0
  0
VERTEX
  8
0
  6
CONTINUOUS
 62
          93
  5
6A0
 10
-2862.344086180149
 20
-771.053451279235
 30
0.0
  0
SEQEND
  8
0
  6
CONTINUOUS
 62
          93
  5
6A1
  0
POLYLINE
  8
0
  6
CONTINUOUS
 62
          93
  5
6A2
 66
           1
 10
0.0
 20
0.0
 30
0.0
 70
         128
  0
VERTEX
  8
0
  6
CONTINUOUS
 62
          93
  5
6A3
 10
-3120.625328407387
 20
-772.340900066728
 30
0.0
  0
VERTEX
  8
0
  6
CONTINUOUS
 62
          93
  5
6A4
 10
-3134.60290279939
 20
-772.253689230777
 30
0.0
  0
VERTEX
  8
0
  6
CONTINUOUS
 62
          93
  5
6A5
 10
-3149.272483200989
 20
-772.194694819027
 30
0.0
  0
SEQEND
  8
0
  6
CONTINUOUS
 62
          93
  5
6A6
  0
LINE
  8
0
  6
CONTINUOUS
 62
          93
  5
6A7
 10
-2706.291763685465
 20
-752.444403395455
 30
0.0
 11
-2705.448197765345
 21
-758.46942421139
 31
0.0
1001
TCAD
1000
TCW_CUSTOM_DATA
1002
{
1000
#$AUX@_ToolInfo Properties
1070
           8
1000
Insert^JLine^JSingle@Line Single
1002
}
  0
LINE
  8
0
  6
CONTINUOUS
 62
          93
  5
6A8
 10
-2679.136980760254
 20
-717.662349027592
 30
0.0
 11
-2679.136980760254
 21
-748.36535248944
 31
0.0
  0
POLYLINE
  8
0
  6
CONTINUOUS
 62
          93
  5
6A9
 66
           1
 10
0.0
 20
0.0
 30
0.0
 70
         128
1001
TCAD
1000
TCW_REFPOINT
1002
{
1010
-2983.334728828038
1020
-675.662975236222
1030
0.0
1002
}
1000
TCW_CUSTOM_DATA
1002
{
1000
#$AUX@_ToolInfo Properties
1070
           8
1000
Insert^JLine^JPolyline@Line Polyline
1002
}
  0
VERTEX
  8
0
  6
CONTINUOUS
 62
          93
  5
6AA
 10
-2983.334728828038
 20
-675.662975236222
 30
0.0
  0
VERTEX
  8
0
  6
CONTINUOUS
 62
          93
  5
6AB
 10
-2983.334728828038
 20
-657.635891902383
 30
0.0
  0
VERTEX
  8
0
  6
CONTINUOUS
 62
          93
  5
6AC
 10
-2991.334728828037
 20
-657.635891902383
 30
0.0
  0
VERTEX
  8
0
  6
CONTINUOUS
 62
          93
  5
6AD
 10
-2991.334728828037
 20
-664.16297523622
 30
0.0
  0
VERTEX
  8
0
  6
CONTINUOUS
 62
          93
  5
6AE
 10
-3004.132645493882
 20
-664.162975236221
 30
0.0
  0
VERTEX
  8
0
  6
CONTINUOUS
 62
          93
  5
6AF
 10
-3004.132645493882
 20
-598.004952789936
 30
0.0
  0
VERTEX
  8
0
  6
CONTINUOUS
 62
          93
  5
6B0
 10
-3046.801940985603
 20
-598.004952789936
 30
0.0
  0
VERTEX
  8
0
  6
CONTINUOUS
 62
          93
  5
6B1
 10
-3046.801940985604
 20
-759.320997682504
 30
0.0
  0
VERTEX
  8
0
  6
CONTINUOUS
 62
          93
  5
6B2
 10
-3004.132645493882
 20
-759.320997682504
 30
0.0
  0
VERTEX
  8
0
  6
CONTINUOUS
 62
          93
  5
6B3
 10
-3004.132645493882
 20
-693.162975236219
 30
0.0
  0
VERTEX
  8
0
  6
CONTINUOUS
 62
          93
  5
6B4
 10
-2991.334728828037
 20
-693.162975236221
 30
0.0
  0
VERTEX
  8
0
  6
CONTINUOUS
 62
          93
  5
6B5
 10
-2991.334728828037
 20
-699.690058570057
 30
0.0
  0
VERTEX
  8
0
  6
CONTINUOUS
 62
          93
  5
6B6
 10
-2983.334728828037
 20
-699.690058570057
 30
0.0
  0
VERTEX
  8
0
  6
CONTINUOUS
 62
          93
  5
6B7
 10
-2983.334728828038
 20
-681.662975236222
 30
0.0
  0
SEQEND
  8
0
  6
CONTINUOUS
 62
          93
  5
6B8
  0
POLYLINE
  8
0
  6
CONTINUOUS
 62
          93
  5
6B9
 66
           1
 10
0.0
 20
0.0
 30
0.0
 70
         129
1001
TCAD
1000
TCW_CUSTOM_DATA
1002
{
1000
#$AUX@_ToolInfo Properties
1070
           8
1000
Insert^JLine^JRectangle@Line Rectangle
1002
}
  0
VERTEX
  8
0
  6
CONTINUOUS
 62
          93
  5
6BA
 10
-3332.89661683169
 20
-301.04569644009
 30
0.0
  0
VERTEX
  8
0
  6
CONTINUOUS
 62
          93
  5
6BB
 10
-1261.696506975374
 20
-301.04569644009
 30
0.0
  0
VERTEX
  8
0
  6
CONTINUOUS
 62
          93
  5
6BC
 10
-1261.696506975374
 20
-1843.055930512473
 30
0.0
  0
VERTEX
  8
0
  6
CONTINUOUS
 62
          93
  5
6BD
 10
-3332.89661683169
 20
-1843.055930512473
 30
0.0
  0
SEQEND
  8
0
  6
CONTINUOUS
 62
          93
  5
6BE
  0
POLYLINE
  8
0
  6
CONTINUOUS
 62
          93
  5
6BF
 66
           1
 10
0.0
 20
0.0
 30
0.0
 70
         128
1001
TCAD
1000
TCW_CUSTOM_DATA
1002
{
1000
#$AUX@_ToolInfo Properties
1070
           8
1000
Insert^JLine^JPolyline@Line Polyline
1002
}
  0
VERTEX
  8
0
  6
CONTINUOUS
 62
          93
  5
6C0
 10
-2285.030571405229
 20
-1843.055930512473
 30
0.0
  0
VERTEX
  8
0
  6
CONTINUOUS
 62
          93
  5
6C1
 10
-2285.030571405229
 20
-1576.708708263607
 30
0.0
  0
VERTEX
  8
0
  6
CONTINUOUS
 62
          93
  5
6C2
 10
-1261.696506975374
 20
-1576.708708263607
 30
0.0
  0
SEQEND
  8
0
  6
CONTINUOUS
 62
          93
  5
6C3
  0
TEXT
  8
0
  6
CONTINUOUS
 62
           7
  5
6C4
 10
-2213.18691293002
 20
-1808.010243107078
 30
0.0
 40
28.912692260742
  1
F14 Tomcat
 11
-2213.18691293002
 21
-1634.534092021858
 31
0.0
 73
           3
1001
TCAD
1000
TCW_CUSTOM_DATA
1002
{
1000
#$AUX@_ToolInfo Properties
1070
           8
1000
Insert^JText@Text
1002
}
1000
TCW40_TEXT
1002
{
1000
Times New Roman
1070
           0
1070
         257
1002
}
  0
TEXT
  8
0
  6
CONTINUOUS
 62
           7
  5
6C5
 10
-2213.18691293002
 20
-1856.198063541648
 30
0.0
 40
28.912692260742
  1
Depron 6mm
 11
-2213.18691293002
 21
-1682.721912456429
 31
0.0
 73
           3
1001
TCAD
1000
TCW_CUSTOM_DATA
1002
{
1000
#$AUX@_ToolInfo Properties
1070
           8
1000
Insert^JText@Text
1002
}
1000
TCW40_TEXT
1002
{
1000
Times New Roman
1070
           0
1070
         257
1002
}
  0
TEXT
  8
0
  6
CONTINUOUS
 62
           7
  5
6C6
 10
-2213.18691293002
 20
-1952.573704410789
 30
0.0
 40
28.912692260742
  1
http://projetcnc.blogspot.com
 11
-2213.18691293002
 21
-1779.097553325569
 31
0.0
 73
           3
1001
TCAD
1000
TCW_CUSTOM_DATA
1002
{
1000
#$AUX@_ToolInfo Properties
1070
           8
1000
Insert^JText@Text
1002
}
1000
TCW40_TEXT
1002
{
1000
Times New Roman
1070
           0
1070
         257
1002
}
  0
TEXT
  8
0
  6
CONTINUOUS
 62
           7
  5
6C7
 10
-2213.18691293002
 20
-2097.1371657145
 30
0.0
 40
28.912692260742
  1
http://grenadeindoor.modelisme.com
 11
-2213.18691293002
 21
-1923.66101462928
 31
0.0
 73
           3
1001
TCAD
1000
TCW_CUSTOM_DATA
1002
{
1000
#$AUX@_ToolInfo Properties
1070
           8
1000
Insert^JText@Text
1002
}
1000
TCW40_TEXT
1002
{
1000
Times New Roman
1070
           0
1070
         257
1002
}
  0
ENDSEC
  0
EOF
